  0
SECTION
  2
HEADER
  9
$ACADVER
  1
AC1018
  9
$ACADMAINTVER
 70
   104
  9
$DWGCODEPAGE
  3
ANSI_932
  9
$LASTSAVEDBY
  1
a-komatsu
  9
$INSBASE
 10
0.0
 20
0.0
 30
0.0
  9
$EXTMIN
 10
10.0
 20
15.0
 30
0.0
  9
$EXTMAX
 10
287.0
 20
200.0
 30
0.0
  9
$LIMMIN
 10
0.0
 20
0.0
  9
$LIMMAX
 10
297.0
 20
210.0
  9
$ORTHOMODE
 70
     0
  9
$REGENMODE
 70
     1
  9
$FILLMODE
 70
     1
  9
$QTEXTMODE
 70
     0
  9
$MIRRTEXT
 70
     0
  9
$LTSCALE
 40
15.0
  9
$ATTMODE
 70
     1
  9
$TEXTSIZE
 40
0.2
  9
$TRACEWID
 40
0.05
  9
$TEXTSTYLE
  7
Standard
  9
$CLAYER
  8
CSLAYER1
  9
$CELTYPE
  6
ByLayer
  9
$CECOLOR
 62
   256
  9
$CELTSCALE
 40
1.0
  9
$DISPSILH
 70
     0
  9
$DIMSCALE
 40
1.0
  9
$DIMASZ
 40
0.18
  9
$DIMEXO
 40
0.0625
  9
$DIMDLI
 40
0.38
  9
$DIMRND
 40
0.0
  9
$DIMDLE
 40
0.0
  9
$DIMEXE
 40
0.18
  9
$DIMTP
 40
0.0
  9
$DIMTM
 40
0.0
  9
$DIMTXT
 40
0.18
  9
$DIMCEN
 40
0.09
  9
$DIMTSZ
 40
0.0
  9
$DIMTOL
 70
     0
  9
$DIMLIM
 70
     0
  9
$DIMTIH
 70
     1
  9
$DIMTOH
 70
     1
  9
$DIMSE1
 70
     0
  9
$DIMSE2
 70
     0
  9
$DIMTAD
 70
     0
  9
$DIMZIN
 70
     0
  9
$DIMBLK
  1

  9
$DIMASO
 70
     1
  9
$DIMSHO
 70
     1
  9
$DIMPOST
  1

  9
$DIMAPOST
  1

  9
$DIMALT
 70
     0
  9
$DIMALTD
 70
     2
  9
$DIMALTF
 40
25.4
  9
$DIMLFAC
 40
1.0
  9
$DIMTOFL
 70
     0
  9
$DIMTVP
 40
0.0
  9
$DIMTIX
 70
     0
  9
$DIMSOXD
 70
     0
  9
$DIMSAH
 70
     0
  9
$DIMBLK1
  1

  9
$DIMBLK2
  1

  9
$DIMSTYLE
  2
Standard
  9
$DIMCLRD
 70
     0
  9
$DIMCLRE
 70
     0
  9
$DIMCLRT
 70
     0
  9
$DIMTFAC
 40
1.0
  9
$DIMGAP
 40
0.09
  9
$DIMJUST
 70
     0
  9
$DIMSD1
 70
     0
  9
$DIMSD2
 70
     0
  9
$DIMTOLJ
 70
     1
  9
$DIMTZIN
 70
     0
  9
$DIMALTZ
 70
     0
  9
$DIMALTTZ
 70
     0
  9
$DIMUPT
 70
     0
  9
$DIMDEC
 70
     4
  9
$DIMTDEC
 70
     4
  9
$DIMALTU
 70
     2
  9
$DIMALTTD
 70
     2
  9
$DIMTXSTY
  7
Standard
  9
$DIMAUNIT
 70
     0
  9
$DIMADEC
 70
     0
  9
$DIMALTRND
 40
0.0
  9
$DIMAZIN
 70
     0
  9
$DIMDSEP
 70
    46
  9
$DIMATFIT
 70
     3
  9
$DIMFRAC
 70
     0
  9
$DIMLDRBLK
  1

  9
$DIMLUNIT
 70
     2
  9
$DIMLWD
 70
    -2
  9
$DIMLWE
 70
    -2
  9
$DIMTMOVE
 70
     0
  9
$LUNITS
 70
     2
  9
$LUPREC
 70
     4
  9
$SKETCHINC
 40
0.1
  9
$FILLETRAD
 40
0.0
  9
$AUNITS
 70
     0
  9
$AUPREC
 70
     0
  9
$MENU
  1
ACAD
  9
$ELEVATION
 40
0.0
  9
$PELEVATION
 40
0.0
  9
$THICKNESS
 40
0.0
  9
$LIMCHECK
 70
     0
  9
$CHAMFERA
 40
0.0
  9
$CHAMFERB
 40
0.0
  9
$CHAMFERC
 40
0.0
  9
$CHAMFERD
 40
0.0
  9
$SKPOLY
 70
     0
  9
$TDCREATE
 40
2456776.000000000
  9
$TDUCREATE
 40
2456775.625000000
  9
$TDUPDATE
 40
2458386.675925926
  9
$TDUUPDATE
 40
2458386.300925926
  9
$TDINDWG
 40
0.0010300926
  9
$TDUSRTIMER
 40
0.0010300926
  9
$USRTIMER
 70
     1
  9
$ANGBASE
 50
0.0
  9
$ANGDIR
 70
     0
  9
$PDMODE
 70
     0
  9
$PDSIZE
 40
0.0
  9
$PLINEWID
 40
0.0
  9
$SPLFRAME
 70
     0
  9
$SPLINETYPE
 70
     6
  9
$SPLINESEGS
 70
     8
  9
$HANDSEED
  5
431
  9
$SURFTAB1
 70
     6
  9
$SURFTAB2
 70
     6
  9
$SURFTYPE
 70
     6
  9
$SURFU
 70
     6
  9
$SURFV
 70
     6
  9
$UCSBASE
  2

  9
$UCSNAME
  2

  9
$UCSORG
 10
0.0
 20
0.0
 30
0.0
  9
$UCSXDIR
 10
1.0
 20
0.0
 30
0.0
  9
$UCSYDIR
 10
0.0
 20
1.0
 30
0.0
  9
$UCSORTHOREF
  2

  9
$UCSORTHOVIEW
 70
     0
  9
$UCSORGTOP
 10
0.0
 20
0.0
 30
0.0
  9
$UCSORGBOTTOM
 10
0.0
 20
0.0
 30
0.0
  9
$UCSORGLEFT
 10
0.0
 20
0.0
 30
0.0
  9
$UCSORGRIGHT
 10
0.0
 20
0.0
 30
0.0
  9
$UCSORGFRONT
 10
0.0
 20
0.0
 30
0.0
  9
$UCSORGBACK
 10
0.0
 20
0.0
 30
0.0
  9
$PUCSBASE
  2

  9
$PUCSNAME
  2

  9
$PUCSORG
 10
0.0
 20
0.0
 30
0.0
  9
$PUCSXDIR
 10
1.0
 20
0.0
 30
0.0
  9
$PUCSYDIR
 10
0.0
 20
1.0
 30
0.0
  9
$PUCSORTHOREF
  2

  9
$PUCSORTHOVIEW
 70
     0
  9
$PUCSORGTOP
 10
0.0
 20
0.0
 30
0.0
  9
$PUCSORGBOTTOM
 10
0.0
 20
0.0
 30
0.0
  9
$PUCSORGLEFT
 10
0.0
 20
0.0
 30
0.0
  9
$PUCSORGRIGHT
 10
0.0
 20
0.0
 30
0.0
  9
$PUCSORGFRONT
 10
0.0
 20
0.0
 30
0.0
  9
$PUCSORGBACK
 10
0.0
 20
0.0
 30
0.0
  9
$USERI1
 70
     0
  9
$USERI2
 70
     0
  9
$USERI3
 70
     0
  9
$USERI4
 70
     0
  9
$USERI5
 70
     0
  9
$USERR1
 40
0.0
  9
$USERR2
 40
0.0
  9
$USERR3
 40
0.0
  9
$USERR4
 40
0.0
  9
$USERR5
 40
0.0
  9
$WORLDVIEW
 70
     1
  9
$SHADEDGE
 70
     3
  9
$SHADEDIF
 70
    70
  9
$TILEMODE
 70
     1
  9
$MAXACTVP
 70
    64
  9
$PINSBASE
 10
0.0
 20
0.0
 30
0.0
  9
$PLIMCHECK
 70
     0
  9
$PEXTMIN
 10
1.000000000000000E+20
 20
1.000000000000000E+20
 30
1.000000000000000E+20
  9
$PEXTMAX
 10
-1.000000000000000E+20
 20
-1.000000000000000E+20
 30
-1.000000000000000E+20
  9
$PLIMMIN
 10
0.0
 20
0.0
  9
$PLIMMAX
 10
12.0
 20
9.0
  9
$UNITMODE
 70
     0
  9
$VISRETAIN
 70
     1
  9
$PLINEGEN
 70
     0
  9
$PSLTSCALE
 70
     1
  9
$TREEDEPTH
 70
  3020
  9
$CMLSTYLE
  2
Standard
  9
$CMLJUST
 70
     0
  9
$CMLSCALE
 40
1.0
  9
$PROXYGRAPHICS
 70
     1
  9
$MEASUREMENT
 70
     0
  9
$CELWEIGHT
370
    -1
  9
$ENDCAPS
280
     0
  9
$JOINSTYLE
280
     0
  9
$LWDISPLAY
290
     0
  9
$INSUNITS
 70
     0
  9
$HYPERLINKBASE
  1

  9
$STYLESHEET
  1

  9
$XEDIT
290
     1
  9
$CEPSNTYPE
380
     0
  9
$PSTYLEMODE
290
     1
  9
$FINGERPRINTGUID
  2
{550E3495-69A6-F542-AC39-34F3C348A4BF}
  9
$VERSIONGUID
  2
{2BC9E836-578D-8649-896C-00E789C96189}
  9
$EXTNAMES
290
     1
  9
$PSVPSCALE
 40
0.0
  9
$OLESTARTUP
290
     0
  9
$SORTENTS
280
   127
  9
$INDEXCTL
280
     0
  9
$HIDETEXT
280
     0
  9
$XCLIPFRAME
290
     0
  9
$HALOGAP
280
     0
  9
$OBSCOLOR
 70
   257
  9
$OBSLTYPE
280
     0
  9
$INTERSECTIONDISPLAY
280
     0
  9
$INTERSECTIONCOLOR
 70
   257
  9
$DIMASSOC
280
     1
  9
$PROJECTNAME
  1

  0
ENDSEC
  0
SECTION
  2
CLASSES
  0
CLASS
  1
ACDBDICTIONARYWDFLT
  2
AcDbDictionaryWithDefault
  3
ObjectDBX Classes
 90
        0
 91
        1
280
     0
281
     0
  0
CLASS
  1
MATERIAL
  2
AcDbMaterial
  3
ObjectDBX Classes
 90
     1153
 91
        3
280
     0
281
     0
  0
CLASS
  1
VISUALSTYLE
  2
AcDbVisualStyle
  3
ObjectDBX Classes
 90
     4095
 91
       24
280
     0
281
     0
  0
CLASS
  1
SCALE
  2
AcDbScale
  3
ObjectDBX Classes
 90
     1153
 91
       17
280
     0
281
     0
  0
CLASS
  1
TABLESTYLE
  2
AcDbTableStyle
  3
ObjectDBX Classes
 90
     4095
 91
        1
280
     0
281
     0
  0
CLASS
  1
MLEADERSTYLE
  2
AcDbMLeaderStyle
  3
ACDB_MLEADERSTYLE_CLASS
 90
     4095
 91
        1
280
     0
281
     0
  0
CLASS
  1
ACDBSECTIONVIEWSTYLE
  2
AcDbSectionViewStyle
  3
ObjectDBX Classes
 90
     1025
 91
        2
280
     0
281
     0
  0
CLASS
  1
ACDBDETAILVIEWSTYLE
  2
AcDbDetailViewStyle
  3
ObjectDBX Classes
 90
     1025
 91
        2
280
     0
281
     0
  0
CLASS
  1
AMGSETTINGSOBJ
  2
AmgSettingsObj
  3
"AcadM|Product Description: AutoCAD Mechanical|Company: Autodesk, Inc."
 90
     1024
 91
        2
280
     0
281
     0
  0
CLASS
  1
ACME_DOCUMENT
  2
AcMeDbDoc
  3
AcMeServices
 90
     1024
 91
        1
280
     0
281
     0
  0
CLASS
  1
ACMESCOPE
  2
AcMeScope
  3
AcMeServices
 90
     1024
 91
        1
280
     0
281
     0
  0
CLASS
  1
ACMECOMMANDHISTORY
  2
AcMeCommandHistory
  3
AcMeServices
 90
     1024
 91
        1
280
     0
281
     0
  0
CLASS
  1
ACIMSYSVARMAN
  2
AcImSysVarManager
  3
AcMeServices
 90
     1024
 91
        3
280
     0
281
     0
  0
CLASS
  1
ACIMINTSYSVAR
  2
AcImIntSysVar
  3
AcMeServices
 90
     1024
 91
        2
280
     0
281
     0
  0
CLASS
  1
ACMESTATEMGR
  2
AcMeStateMgr
  3
AcMeServices
 90
     1024
 91
        1
280
     0
281
     0
  0
CLASS
  1
ACDBENTITYCACHE
  2
AcMeEntityCache
  3
AcMeServices
 90
     1024
 91
        1
280
     0
281
     0
  0
CLASS
  1
ACGREFMASTER
  2
AcGrefMaster
  3
AcAttribServices
 90
     1024
 91
        1
280
     0
281
     0
  0
CLASS
  1
ACME_DATABASE
  2
AcMeDbDatabase
  3
AcMeServices
 90
     1024
 91
        1
280
     0
281
     0
  0
CLASS
  1
ACRFINSADJUSTERMGR
  2
AcRfInsAdjusterMgr
  3
AcMeServices
 90
     1024
 91
        1
280
     0
281
     0
  0
CLASS
  1
ACGREFACADMASTER
  2
AcGrefacadMaster
  3
AcGrefServices
 90
     1024
 91
        1
280
     0
281
     0
  0
CLASS
  1
AMDTMENUSTATEMGR
  2
AmdtMenuStateMgr
  3
McadcomServices
 90
     1024
 91
        1
280
     0
281
     0
  0
CLASS
  1
AMDTMCOMMENUSTATE
  2
AmdtMcomMenuState
  3
McadcomServices
 90
     1024
 91
        1
280
     0
281
     0
  0
CLASS
  1
AMIMASTER
  2
AmiMaster
  3
AmiServices
 90
     1024
 91
        1
280
     0
281
     0
  0
CLASS
  1
MAPIAMMOUDLE
  2
MApiAmModule
  3
MApiAmServices
 90
     1024
 91
        1
280
     0
281
     0
  0
CLASS
  1
ACIMSTRSYSVAR
  2
AcImStrSysVar
  3
AcMeServices
 90
     1024
 91
        5
280
     0
281
     0
  0
CLASS
  1
AMDTAMMENUSTATE
  2
AmdtAmMenuState
  3
DesignerAssemblies
 90
     1024
 91
        1
280
     0
281
     0
  0
CLASS
  1
ACAMPROJECT
  2
AcAmProject
  3
DesignerAssemblies
 90
     1024
 91
        1
280
     0
281
     0
  0
CLASS
  1
ACAMGRCOMPDEF
  2
AcAmGrCompDef
  3
DesignerAssemblies
 90
     1024
 91
        1
280
     0
281
     0
  0
CLASS
  1
ACAMCOMPDEF
  2
AcAmCompDef
  3
DesignerAssemblies
 90
     1024
 91
        1
280
     0
281
     0
  0
CLASS
  1
ACAMCOMPDEFMGR
  2
AcAmCompDefMgr
  3
DesignerAssemblies
 90
     1024
 91
        1
280
     0
281
     0
  0
CLASS
  1
AMCONTEXTMGR
  2
AcAmContextMgr
  3
DesignerAssemblies
 90
     1024
 91
        1
280
     0
281
     0
  0
CLASS
  1
ACAMCONTEXTMODELER
  2
AcAmContextModeler
  3
DesignerAssemblies
 90
     1024
 91
        1
280
     0
281
     0
  0
CLASS
  1
ACMDATADICTIONARY
  2
AcmDataDictionary
  3
"AcmSymBB|Product Description: AutoCAD Mechanical|Company: Autodesk, Inc."
 90
     1024
 91
        1
280
     0
281
     0
  0
CLASS
  1
ACAMGRCOMPDEFSET
  2
AcAmGrCompDefSet
  3
DesignerAssemblies
 90
     1024
 91
        1
280
     0
281
     0
  0
CLASS
  1
AMDTBROWSERDBTAB
  2
AmdtBrowserDbTab
  3
McadcomServices
 90
     1024
 91
        1
280
     0
281
     0
  0
CLASS
  1
CBROWSERAPPOBJECT
  2
CBrowserAppObject
  3
McadcomServices
 90
     1024
 91
        2
280
     0
281
     0
  0
CLASS
  1
DM_PLACEHOLDER
  2
AcDmSelsetPlaceholder
  3
McadcomServices
 90
     1024
 91
        1
280
     0
281
     0
  0
CLASS
  1
EXACXREFPANELOBJECT
  2
ExAcXREFPanelObject
  3
EXAC_ESW
 90
     1025
 91
        1
280
     0
281
     0
  0
CLASS
  1
NPOCOLLECTION
  2
AcDbImpNonPersistentObjectsCollection
  3
ObjectDBX Classes
 90
     1153
 91
        1
280
     0
281
     0
  0
CLASS
  1
ACMSTANDARDANSI
  2
AcmStandardANSI
  3
"Amdt_StdImp|Product Description: AutoCAD Mechanical|Company: Autodesk, Inc."
 90
     1024
 91
        1
280
     0
281
     0
  0
CLASS
  1
ACMSURFSTANDARDANSI
  2
AcmSurfTextStdANSI
  3
"Amdt_StdImp|Product Description: AutoCAD Mechanical|Company: Autodesk, Inc."
 90
     1024
 91
        1
280
     0
281
     0
  0
CLASS
  1
ACMFCFSTANDARDANSI
  2
AcmFCFStdANSI
  3
"Amdt_StdImp|Product Description: AutoCAD Mechanical|Company: Autodesk, Inc."
 90
     1024
 91
        1
280
     0
281
     0
  0
CLASS
  1
ACMWELDSTANDARDANSI
  2
AcmWeldingStdANSI
  3
"Amdt_StdImp|Product Description: AutoCAD Mechanical|Company: Autodesk, Inc."
 90
     1024
 91
        1
280
     0
281
     0
  0
CLASS
  1
ACMIDSTANDARDANSI
  2
AcmIdStdANSI
  3
"Amdt_StdImp|Product Description: AutoCAD Mechanical|Company: Autodesk, Inc."
 90
     1024
 91
        1
280
     0
281
     0
  0
CLASS
  1
ACMDATUMSTANDARDANSI
  2
AcmDatumStdANSI
  3
"Amdt_StdImp|Product Description: AutoCAD Mechanical|Company: Autodesk, Inc."
 90
     1024
 91
        1
280
     0
281
     0
  0
CLASS
  1
ACMBOMSTANDARDANSI
  2
AcmBOMStdANSI
  3
"Amdt_StdImp|Product Description: AutoCAD Mechanical|Company: Autodesk, Inc."
 90
     1024
 91
        1
280
     0
281
     0
  0
CLASS
  1
ACMDETAILSTANDARDANSI
  2
AmdtDetailSymStdANSI
  3
"Amdt_StdImp|Product Description: AutoCAD Mechanical|Company: Autodesk, Inc."
 90
     1024
 91
        1
280
     0
281
     0
  0
CLASS
  1
ACMSECTIONSTANDARDANSI
  2
AmdtSectionSymStdANSI
  3
"Amdt_StdImp|Product Description: AutoCAD Mechanical|Company: Autodesk, Inc."
 90
     1024
 91
        1
280
     0
281
     0
  0
CLASS
  1
ACMCENTERLINESTANDARDANSI
  2
AmdtCenterLineStdANSI
  3
"Amdt_StdImp|Product Description: AutoCAD Mechanical|Company: Autodesk, Inc."
 90
     1024
 91
        1
280
     0
281
     0
  0
CLASS
  1
ACMTHREADLINESTANDARDANSI
  2
AmdtThreadLineStdANSI
  3
"Amdt_StdImp|Product Description: AutoCAD Mechanical|Company: Autodesk, Inc."
 90
     1024
 91
        1
280
     0
281
     0
  0
CLASS
  1
ACMNOTESTANDARDANSI
  2
AmdtNoteStdANSI
  3
"Amdt_StdImp|Product Description: AutoCAD Mechanical|Company: Autodesk, Inc."
 90
     1024
 91
        1
280
     0
281
     0
  0
CLASS
  1
ACMTAPERSTANDARDANSI
  2
AcmTaperStdANSI
  3
"Amdt_StdImp|Product Description: AutoCAD Mechanical|Company: Autodesk, Inc."
 90
     1024
 91
        1
280
     0
281
     0
  0
CLASS
  1
ACMANOOTATIONVIEWSTANDARDANSI
  2
AmdtAnViewStdANSI
  3
"Amdt_StdImp|Product Description: AutoCAD Mechanical|Company: Autodesk, Inc."
 90
     1024
 91
        1
280
     0
281
     0
  0
CLASS
  1
ACAMGLAYSTD
  2
AcAmgLayStd
  3
"AmgLay|Product Description: AutoCAD Mechanical|Company: Autodesk, Inc."
 90
     1024
 91
        1
280
     0
281
     0
  0
CLASS
  1
ACAMGDIMSTD
  2
AcAmgDimStd
  3
"AmgDim|Product Description: AutoCAD Mechanical|Company: Autodesk, Inc."
 90
     1024
 91
        1
280
     0
281
     0
  0
CLASS
  1
AMGOBJPROPCFG
  2
AmgObjPropCfg
  3
"AmgLay|Product Description: AutoCAD Mechanical|Company: Autodesk, Inc."
 90
     1024
 91
        1
280
     0
281
     0
  0
CLASS
  1
ACAMGHOLECHARTSTDANSI
  2
AcAmgHoleChartStdANSI
  3
AmgDim|Product Description: AutoCAD Mechanical|Company: Autodesk, Inc.
 90
     1024
 91
        1
280
     0
281
     0
  0
CLASS
  1
ACAMGTITLESTD
  2
AcAmgTitleStd
  3
"AmgTitle|Product Description: AutoCAD Mechanical|Company: Autodesk, Inc."
 90
     1024
 91
        1
280
     0
281
     0
  0
CLASS
  1
ACMSECTIONSTANDARDCUSTOM
  2
AmdtSectionSymStdCustom
  3
"Amdt_StdImp|Product Description: AutoCAD Mechanical|Company: Autodesk, Inc."
 90
     1024
 91
        1
280
     0
281
     0
  0
CLASS
  1
ACMDETAILTANDARDCUSTOM
  2
AmdtDetailSymStdCustom
  3
"Amdt_StdImp|Product Description: AutoCAD Mechanical|Company: Autodesk, Inc."
 90
     1024
 91
        1
280
     0
281
     0
  0
CLASS
  1
FIELD
  2
AcDbField
  3
ObjectDBX Classes
 90
     1152
 91
        8
280
     0
281
     0
  0
CLASS
  1
FIELDLIST
  2
AcDbFieldList
  3
ObjectDBX Classes
 90
     1152
 91
        1
280
     0
281
     0
  0
CLASS
  1
AMDTNOTETEMPLATEDB
  2
AmdtNoteTemplateDB
  3
AcmSymBB|Product Description: AutoCAD Mechanical|Company: Autodesk, Inc.
 90
     1024
 91
        7
280
     0
281
     0
  0
CLASS
  1
ACAMGFILTERDAT
  2
AcAmgFilterDat
  3
"AcadM|Product Description: AutoCAD Mechanical|Company: Autodesk, Inc."
 90
     1024
 91
        6
280
     0
281
     0
  0
CLASS
  1
DICTIONARYVAR
  2
AcDbDictionaryVar
  3
ObjectDBX Classes
 90
        0
 91
        6
280
     0
281
     0
  0
CLASS
  1
CELLSTYLEMAP
  2
AcDbCellStyleMap
  3
ObjectDBX Classes
 90
     1152
 91
        1
280
     0
281
     0
  0
ENDSEC
  0
SECTION
  2
TABLES
  0
TABLE
  2
VPORT
  5
8
330
0
100
AcDbSymbolTable
 70
     1
  0
VPORT
  5
8F
330
8
100
AcDbSymbolTableRecord
100
AcDbViewportTableRecord
  2
*Active
 70
     0
 10
0.0
 20
0.0
 11
1.0
 21
1.0
 12
179.863381719894
 22
105.5686682035594
 13
0.0
 23
0.0
 14
1.0
 24
1.0
 15
0.0
 25
0.0
 16
0.0
 26
0.0
 36
1.0
 17
0.0
 27
0.0
 37
0.0
 40
234.2438841484374
 41
1.983074753173483
 42
50.0
 43
0.0
 44
0.0
 50
0.0
 51
0.0
 71
     0
 72
   100
 73
     1
 74
     1
 75
     0
 76
     0
 77
     0
 78
     0
281
     0
 65
     0
110
0.0
120
0.0
130
0.0
111
1.0
121
0.0
131
0.0
112
0.0
122
1.0
132
0.0
 79
     0
146
0.0
1001
ACAD_NAV_VCDISPLAY
1070
     3
  0
ENDTAB
  0
TABLE
  2
LTYPE
  5
5
330
0
100
AcDbSymbolTable
 70
    23
  0
LTYPE
  5
5A
330
5
100
AcDbSymbolTableRecord
100
AcDbLinetypeTableRecord
  2
ByBlock
 70
     0
  3

 72
    65
 73
     0
 40
0.0
  0
LTYPE
  5
5B
330
5
100
AcDbSymbolTableRecord
100
AcDbLinetypeTableRecord
  2
ByLayer
 70
     0
  3

 72
    65
 73
     0
 40
0.0
  0
LTYPE
  5
5C
330
5
100
AcDbSymbolTableRecord
100
AcDbLinetypeTableRecord
  2
CONTINUOUS
 70
     0
  3
Solid line
 72
    65
 73
     0
 40
0.0
  0
LTYPE
  5
74
330
5
100
AcDbSymbolTableRecord
100
AcDbLinetypeTableRecord
  2
DASHED
 70
     0
  3
__ __ __ __ __ __ __ __ __ __ __ __ __ __ __
 72
    65
 73
     2
 40
0.75
 49
0.5
 74
     0
 49
-0.25
 74
     0
  0
LTYPE
  5
75
330
5
100
AcDbSymbolTableRecord
100
AcDbLinetypeTableRecord
  2
HIDDEN
 70
     0
  3
_ _ _ _ _ _ _ _ _ _ _ _ _ _ _ _ _ _ _ _ _ _ _
 72
    65
 73
     2
 40
0.375
 49
0.25
 74
     0
 49
-0.125
 74
     0
  0
LTYPE
  5
76
330
5
100
AcDbSymbolTableRecord
100
AcDbLinetypeTableRecord
  2
DOT
 70
     0
  3
...............................................
 72
    65
 73
     2
 40
0.25
 49
0.0
 74
     0
 49
-0.25
 74
     0
  0
LTYPE
  5
77
330
5
100
AcDbSymbolTableRecord
100
AcDbLinetypeTableRecord
  2
DASHDOT
 70
     0
  3
__ . __ . __ . __ . __ . __ . __ . __ . __ . __
 72
    65
 73
     4
 40
1.0
 49
0.5
 74
     0
 49
-0.25
 74
     0
 49
0.0
 74
     0
 49
-0.25
 74
     0
  0
LTYPE
  5
78
330
5
100
AcDbSymbolTableRecord
100
AcDbLinetypeTableRecord
  2
DIVIDE
 70
     0
  3
__ . . __ . . __ . . __ . . __ . . __ . . __
 72
    65
 73
     6
 40
1.25
 49
0.5
 74
     0
 49
-0.25
 74
     0
 49
0.0
 74
     0
 49
-0.25
 74
     0
 49
0.0
 74
     0
 49
-0.25
 74
     0
  0
LTYPE
  5
79
330
5
100
AcDbSymbolTableRecord
100
AcDbLinetypeTableRecord
  2
CENTER
 70
     0
  3
____ _ ____ _ ____ _ ____ _ ____ _ ____ _ ____ 
 72
    65
 73
     4
 40
2.0
 49
1.25
 74
     0
 49
-0.25
 74
     0
 49
0.25
 74
     0
 49
-0.25
 74
     0
  0
LTYPE
  5
7A
330
5
100
AcDbSymbolTableRecord
100
AcDbLinetypeTableRecord
  2
PHANTOM
 70
     0
  3
______  __  __  ______  __  __  ______  __  __ 
 72
    65
 73
     6
 40
2.5
 49
1.25
 74
     0
 49
-0.25
 74
     0
 49
0.25
 74
     0
 49
-0.25
 74
     0
 49
0.25
 74
     0
 49
-0.25
 74
     0
  0
LTYPE
  5
7B
330
5
100
AcDbSymbolTableRecord
100
AcDbLinetypeTableRecord
  2
BORDER
 70
     0
  3
__ __ . __ __ . __ __ . __ __ . __ __ . __ __ .
 72
    65
 73
     6
 40
1.75
 49
0.5
 74
     0
 49
-0.25
 74
     0
 49
0.5
 74
     0
 49
-0.25
 74
     0
 49
0.0
 74
     0
 49
-0.25
 74
     0
  0
LTYPE
  5
347
330
5
100
AcDbSymbolTableRecord
100
AcDbLinetypeTableRecord
  2
PHANTOM2
 70
     0
  3
Phantom (.5x) ___ _ _ ___ _ _ ___ _ _ ___ _ _
 72
    65
 73
     6
 40
1.25
 49
0.625
 74
     0
 49
-0.125
 74
     0
 49
0.125
 74
     0
 49
-0.125
 74
     0
 49
0.125
 74
     0
 49
-0.125
 74
     0
  0
LTYPE
  5
383
330
5
100
AcDbSymbolTableRecord
100
AcDbLinetypeTableRecord
  2
AM_ISO02W050
 70
     0
  3
__ __ __ __ __ __ __ __ __ __ __ __ __ __ __
 72
    65
 73
     2
 40
7.5
 49
6.0
 74
     0
 49
-1.5
 74
     0
  0
LTYPE
  5
384
330
5
100
AcDbSymbolTableRecord
100
AcDbLinetypeTableRecord
  2
AM_ISO08W050
 70
     0
  3
____ . ____ . ____ . ____ . ____ . ____ . ____
 72
    65
 73
     4
 40
18.0
 49
12.0
 74
     0
 49
-1.5
 74
     0
 49
3.0
 74
     0
 49
-1.5
 74
     0
  0
LTYPE
  5
385
330
5
100
AcDbSymbolTableRecord
100
AcDbLinetypeTableRecord
  2
AM_ISO09W050
 70
     0
  3
_____ . . _____ . . _____ . . ____ .. ____
 72
    65
 73
     6
 40
22.5
 49
12.0
 74
     0
 49
-1.5
 74
     0
 49
3.0
 74
     0
 49
-1.5
 74
     0
 49
3.0
 74
     0
 49
-1.5
 74
     0
  0
LTYPE
  5
386
330
5
100
AcDbSymbolTableRecord
100
AcDbLinetypeTableRecord
  2
Amconstr
 70
     0
  3
_______________________
 72
    65
 73
     2
 40
9999.0
 49
9999.0
 74
     0
 49
0.0
 74
     0
  0
LTYPE
  5
387
330
5
100
AcDbSymbolTableRecord
100
AcDbLinetypeTableRecord
  2
AM_ISO08W050x2
 70
     0
  3
__ . __ . __ . __ . __ . __
 72
    65
 73
     4
 40
9.0
 49
6.0
 74
     0
 49
-0.75
 74
     0
 49
1.5
 74
     0
 49
-0.75
 74
     0
  0
LTYPE
  5
388
330
5
100
AcDbSymbolTableRecord
100
AcDbLinetypeTableRecord
  2
AM_ISO02W050x2
 70
     0
  3
 _ _ _ _ _ _ _ _ _ _ _ _
 72
    65
 73
     2
 40
3.75
 49
3.0
 74
     0
 49
-0.75
 74
     0
  0
LTYPE
  5
38B
330
5
100
AcDbSymbolTableRecord
100
AcDbLinetypeTableRecord
  2
Amzigzag
 70
     0
  3
/\/-/\/-/\/-/\/-/\/-/\/
 72
    65
 73
     2
 40
11.0001
 49
0.0001
 74
     4
 75
   136
340
38A
 46
0.04
 50
0.0
 44
0.0
 45
0.0
 49
-11.0
 74
     0
  0
LTYPE
  5
38C
330
5
100
AcDbSymbolTableRecord
100
AcDbLinetypeTableRecord
  2
CENTER2
 70
     0
  3
Center (.5x) ___ _ ___ _ ___ _ ___ _ ___ _ ___
 72
    65
 73
     4
 40
1.125
 49
0.75
 74
     0
 49
-0.125
 74
     0
 49
0.125
 74
     0
 49
-0.125
 74
     0
  0
LTYPE
  5
38D
330
5
100
AcDbSymbolTableRecord
100
AcDbLinetypeTableRecord
  2
HIDDEN2
 70
     0
  3
Hidden (.5x) _ _ _ _ _ _ _ _ _ _ _ _ _ _ _ _ _
 72
    65
 73
     2
 40
0.1875
 49
0.125
 74
     0
 49
-0.0625
 74
     0
  0
LTYPE
  5
38E
330
5
100
AcDbSymbolTableRecord
100
AcDbLinetypeTableRecord
  2
Amzigzag2
 70
     0
  3
/\/-/\/-/\/-/\/-/\/-/\/
 72
    65
 73
     2
 40
0.4401
 49
0.0001
 74
     4
 75
   136
340
38A
 46
0.0016
 50
0.0
 44
0.0
 45
0.0
 49
-0.4400000000000001
 74
     0
  0
LTYPE
  5
39E
330
5
100
AcDbSymbolTableRecord
100
AcDbLinetypeTableRecord
  2
ACANSTGB
 70
     0
  3
__ . . __ . .
 72
    65
 73
     6
 40
0.35433070866
 49
0.15748031496
 74
     0
 49
-0.03937007874
 74
     0
 49
0.03937007874
 74
     0
 49
-0.03937007874
 74
     0
 49
0.03937007874
 74
     0
 49
-0.03937007874
 74
     0
  0
LTYPE
  5
39F
330
5
100
AcDbSymbolTableRecord
100
AcDbLinetypeTableRecord
  2
ACANSTGL
 70
     0
  3
_ _ _ _ _
 72
    65
 73
     2
 40
0.11811023622
 49
0.07874015748
 74
     0
 49
-0.03937007874
 74
     0
  0
ENDTAB
  0
TABLE
  2
LAYER
  5
2
330
0
100
AcDbSymbolTable
 70
    17
  0
LAYER
  5
54
102
{ACAD_XDICTIONARY
360
3C8
102
}
330
2
100
AcDbSymbolTableRecord
100
AcDbLayerTableRecord
  2
0
 70
     0
 62
     7
  6
CONTINUOUS
370
    -3
390
F
  0
LAYER
  5
73
102
{ACAD_XDICTIONARY
360
3CA
102
}
330
2
100
AcDbSymbolTableRecord
100
AcDbLayerTableRecord
  2
CSLAYER1
 70
     0
 62
     7
  6
CONTINUOUS
370
    -3
390
F
  0
LAYER
  5
7C
102
{ACAD_XDICTIONARY
360
3CC
102
}
330
2
100
AcDbSymbolTableRecord
100
AcDbLayerTableRecord
  2
CSLAYER2
 70
     0
 62
     7
  6
CONTINUOUS
370
    -3
390
F
  0
LAYER
  5
7D
102
{ACAD_XDICTIONARY
360
3CE
102
}
330
2
100
AcDbSymbolTableRecord
100
AcDbLayerTableRecord
  2
CSLAYER3
 70
     0
 62
     7
  6
CONTINUOUS
370
    -3
390
F
  0
LAYER
  5
7E
102
{ACAD_XDICTIONARY
360
3D0
102
}
330
2
100
AcDbSymbolTableRecord
100
AcDbLayerTableRecord
  2
CSLAYER4
 70
     0
 62
     7
  6
CONTINUOUS
370
    -3
390
F
  0
LAYER
  5
7F
102
{ACAD_XDICTIONARY
360
3D2
102
}
330
2
100
AcDbSymbolTableRecord
100
AcDbLayerTableRecord
  2
CSLAYER5
 70
     0
 62
     7
  6
CONTINUOUS
370
    -3
390
F
  0
LAYER
  5
80
102
{ACAD_XDICTIONARY
360
3D4
102
}
330
2
100
AcDbSymbolTableRecord
100
AcDbLayerTableRecord
  2
CSLAYER6
 70
     0
 62
     7
  6
CONTINUOUS
370
    -3
390
F
  0
LAYER
  5
81
102
{ACAD_XDICTIONARY
360
3D6
102
}
330
2
100
AcDbSymbolTableRecord
100
AcDbLayerTableRecord
  2
CSLAYER7
 70
     0
 62
     7
  6
CONTINUOUS
370
    -3
390
F
  0
LAYER
  5
82
102
{ACAD_XDICTIONARY
360
3D8
102
}
330
2
100
AcDbSymbolTableRecord
100
AcDbLayerTableRecord
  2
CSLAYER8
 70
     0
 62
     7
  6
CONTINUOUS
370
    -3
390
F
  0
LAYER
  5
83
102
{ACAD_XDICTIONARY
360
3DA
102
}
330
2
100
AcDbSymbolTableRecord
100
AcDbLayerTableRecord
  2
CSLAYER9
 70
     0
 62
     7
  6
CONTINUOUS
370
    -3
390
F
  0
LAYER
  5
84
102
{ACAD_XDICTIONARY
360
3DC
102
}
330
2
100
AcDbSymbolTableRecord
100
AcDbLayerTableRecord
  2
CSLAYER10
 70
     0
 62
     7
  6
CONTINUOUS
370
    -3
390
F
  0
LAYER
  5
85
102
{ACAD_XDICTIONARY
360
3DE
102
}
330
2
100
AcDbSymbolTableRecord
100
AcDbLayerTableRecord
  2
CSLAYER11
 70
     0
 62
     7
  6
CONTINUOUS
370
    -3
390
F
  0
LAYER
  5
86
102
{ACAD_XDICTIONARY
360
3E0
102
}
330
2
100
AcDbSymbolTableRecord
100
AcDbLayerTableRecord
  2
CSLAYER12
 70
     0
 62
     7
  6
CONTINUOUS
370
    -3
390
F
  0
LAYER
  5
87
102
{ACAD_XDICTIONARY
360
3E2
102
}
330
2
100
AcDbSymbolTableRecord
100
AcDbLayerTableRecord
  2
CSLAYER13
 70
     0
 62
     7
  6
CONTINUOUS
370
    -3
390
F
  0
LAYER
  5
88
102
{ACAD_XDICTIONARY
360
3E4
102
}
330
2
100
AcDbSymbolTableRecord
100
AcDbLayerTableRecord
  2
CSLAYER14
 70
     0
 62
     7
  6
CONTINUOUS
370
    -3
390
F
  0
LAYER
  5
89
102
{ACAD_XDICTIONARY
360
3E6
102
}
330
2
100
AcDbSymbolTableRecord
100
AcDbLayerTableRecord
  2
CSLAYER15
 70
     0
 62
     7
  6
CONTINUOUS
370
    -3
390
F
  0
LAYER
  5
8A
102
{ACAD_XDICTIONARY
360
3E8
102
}
330
2
100
AcDbSymbolTableRecord
100
AcDbLayerTableRecord
  2
CSLAYER16
 70
     0
 62
     7
  6
CONTINUOUS
370
    -3
390
F
  0
ENDTAB
  0
TABLE
  2
STYLE
  5
3
330
0
100
AcDbSymbolTable
 70
     6
  0
STYLE
  5
55
330
3
100
AcDbSymbolTableRecord
100
AcDbTextStyleTableRecord
  2
Standard
 70
     0
 40
0.0
 41
1.0
 50
0.0
 71
     0
 42
0.2
  3
txt
  4

  0
STYLE
  5
59
330
3
100
AcDbSymbolTableRecord
100
AcDbTextStyleTableRecord
  2
Annotative
 70
     0
 40
0.0
 41
1.0
 50
0.0
 71
     0
 42
0.2
  3
txt
  4

1001
AcadAnnotative
1000
AnnotativeData
1002
{
1070
     1
1070
     1
1002
}
  0
STYLE
  5
8B
330
3
100
AcDbSymbolTableRecord
100
AcDbTextStyleTableRecord
  2
JX_FONT
 70
     0
 40
1.0
 41
1.0
 50
0.0
 71
     0
 42
1.0
  3
monotxt
  4
bigfont
  0
STYLE
  5
38A
330
3
100
AcDbSymbolTableRecord
100
AcDbTextStyleTableRecord
  2

 70
     1
 40
0.0
 41
1.0
 50
0.0
 71
     0
 42
0.2
  3
genltshp.shx
  4

  0
STYLE
  5
39C
330
3
100
AcDbSymbolTableRecord
100
AcDbTextStyleTableRecord
  2
ACANSTS
 70
     0
 40
0.0
 41
1.0
 50
0.0
 71
     0
 42
0.2
  3
romans.shx
  4
extfont.shx
  0
STYLE
  5
39D
330
3
100
AcDbSymbolTableRecord
100
AcDbTextStyleTableRecord
  2
ACANSGDT
 70
     0
 40
0.0
 41
1.0
 50
0.0
 71
     0
 42
0.2
  3
amgdt.shx
  4

  0
ENDTAB
  0
TABLE
  2
VIEW
  5
6
330
0
100
AcDbSymbolTable
 70
     0
  0
ENDTAB
  0
TABLE
  2
UCS
  5
7
330
0
100
AcDbSymbolTable
 70
     0
  0
ENDTAB
  0
TABLE
  2
APPID
  5
9
330
0
100
AcDbSymbolTable
 70
    15
  0
APPID
  5
56
330
9
100
AcDbSymbolTableRecord
100
AcDbRegAppTableRecord
  2
ACAD
 70
     0
  0
APPID
  5
5D
330
9
100
AcDbSymbolTableRecord
100
AcDbRegAppTableRecord
  2
AcadAnnotative
 70
     0
  0
APPID
  5
340
330
9
100
AcDbSymbolTableRecord
100
AcDbRegAppTableRecord
  2
MCAD_NO_VIS
 70
     0
  0
APPID
  5
341
330
9
100
AcDbSymbolTableRecord
100
AcDbRegAppTableRecord
  2
ACAD_TEMP_GRAPHIC
 70
     0
  0
APPID
  5
34C
330
9
100
AcDbSymbolTableRecord
100
AcDbRegAppTableRecord
  2
ACATTRIBSERVICES
 70
     0
  0
APPID
  5
364
330
9
100
AcDbSymbolTableRecord
100
AcDbRegAppTableRecord
  2
DESIGNERASSEMBLIES
 70
     0
  0
APPID
  5
380
330
9
100
AcDbSymbolTableRecord
100
AcDbRegAppTableRecord
  2
ACAD_DSTYLE_DIMJAG
 70
     0
  0
APPID
  5
381
330
9
100
AcDbSymbolTableRecord
100
AcDbRegAppTableRecord
  2
ACAD_DSTYLE_DIMBREAK
 70
     0
  0
APPID
  5
3BB
330
9
100
AcDbSymbolTableRecord
100
AcDbRegAppTableRecord
  2
ACAD_NAV_VCDISPLAY
 70
     0
  0
APPID
  5
3BF
330
9
100
AcDbSymbolTableRecord
100
AcDbRegAppTableRecord
  2
ACAD_EXEMPT_FROM_CAD_STANDARDS
 70
     0
  0
APPID
  5
428
330
9
100
AcDbSymbolTableRecord
100
AcDbRegAppTableRecord
  2
ACAD_MLEADERVER
 70
     0
  0
APPID
  5
42D
330
9
100
AcDbSymbolTableRecord
100
AcDbRegAppTableRecord
  2
ACAD_DSTYLE_DIMARC_LENGTH_SYMBOL
 70
     0
  0
APPID
  5
42E
330
9
100
AcDbSymbolTableRecord
100
AcDbRegAppTableRecord
  2
ACAD_DSTYLE_DIM_LINETYPE
 70
     0
  0
APPID
  5
42F
330
9
100
AcDbSymbolTableRecord
100
AcDbRegAppTableRecord
  2
ACAD_DSTYLE_DIM_EXT1_LINETYPE
 70
     0
  0
APPID
  5
430
330
9
100
AcDbSymbolTableRecord
100
AcDbRegAppTableRecord
  2
ACAD_DSTYLE_DIM_EXT2_LINETYPE
 70
     0
  0
ENDTAB
  0
TABLE
  2
DIMSTYLE
  5
A
330
0
100
AcDbSymbolTable
 70
     8
100
AcDbDimStyleTable
 71
     0
  0
DIMSTYLE
105
57
330
A
100
AcDbSymbolTableRecord
100
AcDbDimStyleTableRecord
  2
Standard
 70
     0
340
55
  0
DIMSTYLE
105
58
330
A
100
AcDbSymbolTableRecord
100
AcDbDimStyleTableRecord
  2
Annotative
 70
     0
340
55
1001
AcadAnnotative
1000
AnnotativeData
1002
{
1070
     1
1070
     1
1002
}
  0
DIMSTYLE
105
37F
102
{ACAD_REACTORS
330
36F
102
}
330
A
100
AcDbSymbolTableRecord
100
AcDbDimStyleTableRecord
  2
AM_ANSI
 70
     0
  4
mm
 41
0.12
 42
0.05
 43
0.5
 44
0.1
 47
0.1
 48
0.1
 78
     7
 79
     2
140
0.12
141
0.0
146
0.71
147
0.06
176
   256
177
   256
178
     2
274
     4
284
     7
340
55
371
    -1
372
    -1
1001
ACAD_DSTYLE_DIMJAG
1070
   388
1040
1.5
1001
ACAD_DSTYLE_DIMBREAK
1070
   391
1040
0.125
1001
ACAD_DSTYLE_DIMARC_LENGTH_SYMBOL
1070
   379
1070
     1
1001
ACAD_DSTYLE_DIM_LINETYPE
1070
   380
1005
5A
1001
ACAD_DSTYLE_DIM_EXT1_LINETYPE
1070
   381
1005
5A
1001
ACAD_DSTYLE_DIM_EXT2_LINETYPE
1070
   382
1005
5A
  0
DIMSTYLE
105
38F
330
A
100
AcDbSymbolTableRecord
100
AcDbDimStyleTableRecord
  2
AM_ANSI$3
 70
     0
  4
mm
 41
0.12
 42
0.05
 43
0.5
 44
0.1
 47
0.1
 48
0.1
 78
     7
 79
     2
140
0.12
141
0.0
146
0.71
147
0.06
176
   256
177
   256
178
     2
274
     4
284
     7
288
     1
289
     0
340
55
371
    -1
372
    -1
1001
ACAD_DSTYLE_DIMBREAK
1070
   391
1040
0.125
1001
ACAD_DSTYLE_DIMJAG
1070
   388
1040
1.5
1001
ACAD_DSTYLE_DIMARC_LENGTH_SYMBOL
1070
   379
1070
     1
1001
ACAD_DSTYLE_DIM_LINETYPE
1070
   380
1005
5A
1001
ACAD_DSTYLE_DIM_EXT1_LINETYPE
1070
   381
1005
5A
1001
ACAD_DSTYLE_DIM_EXT2_LINETYPE
1070
   382
1005
5A
  0
DIMSTYLE
105
390
330
A
100
AcDbSymbolTableRecord
100
AcDbDimStyleTableRecord
  2
AM_ANSI$4
 70
     0
  4
mm
 41
0.12
 42
0.05
 43
0.5
 44
0.1
 47
0.1
 48
0.1
 78
     7
 79
     2
140
0.12
141
0.0
146
0.71
147
0.06
176
   256
177
   256
178
     2
274
     4
284
     7
288
     1
289
     0
340
55
371
    -1
372
    -1
1001
ACAD_DSTYLE_DIMBREAK
1070
   391
1040
0.125
1001
ACAD_DSTYLE_DIMJAG
1070
   388
1040
1.5
1001
ACAD_DSTYLE_DIMARC_LENGTH_SYMBOL
1070
   379
1070
     1
1001
ACAD_DSTYLE_DIM_LINETYPE
1070
   380
1005
5A
1001
ACAD_DSTYLE_DIM_EXT1_LINETYPE
1070
   381
1005
5A
1001
ACAD_DSTYLE_DIM_EXT2_LINETYPE
1070
   382
1005
5A
  0
DIMSTYLE
105
391
330
A
100
AcDbSymbolTableRecord
100
AcDbDimStyleTableRecord
  2
AM_ANSI$7
 70
     0
  4
mm
 41
0.12
 42
0.05
 43
0.5
 44
0.1
 47
0.1
 48
0.1
 78
     7
 79
     2
140
0.12
141
0.0
146
0.71
147
0.06
176
   256
177
   256
178
     2
274
     4
284
     7
340
55
371
    -1
372
    -1
1001
ACAD_DSTYLE_DIMBREAK
1070
   391
1040
0.125
1001
ACAD_DSTYLE_DIMJAG
1070
   388
1040
1.5
1001
ACAD_DSTYLE_DIMARC_LENGTH_SYMBOL
1070
   379
1070
     1
1001
ACAD_DSTYLE_DIM_LINETYPE
1070
   380
1005
5A
1001
ACAD_DSTYLE_DIM_EXT1_LINETYPE
1070
   381
1005
5A
1001
ACAD_DSTYLE_DIM_EXT2_LINETYPE
1070
   382
1005
5A
  0
DIMSTYLE
105
392
330
A
100
AcDbSymbolTableRecord
100
AcDbDimStyleTableRecord
  2
AM_ANSI$SF
 70
     0
  4
mm
 41
0.12
 42
0.05
 43
0.5
 44
0.1
 47
0.1
 48
0.1
 75
     1
 76
     1
 78
     7
 79
     2
140
0.12
141
0.0
146
0.71
147
0.06
176
   256
177
   256
178
     2
274
     4
284
     7
340
55
371
    -1
372
    -1
1001
ACAD_DSTYLE_DIMBREAK
1070
   391
1040
0.125
1001
ACAD_DSTYLE_DIMJAG
1070
   388
1040
1.5
1001
ACAD_DSTYLE_DIMARC_LENGTH_SYMBOL
1070
   379
1070
     1
1001
ACAD_DSTYLE_DIM_LINETYPE
1070
   380
1005
5A
1001
ACAD_DSTYLE_DIM_EXT1_LINETYPE
1070
   381
1005
5A
1001
ACAD_DSTYLE_DIM_EXT2_LINETYPE
1070
   382
1005
5A
  0
DIMSTYLE
105
397
330
A
100
AcDbSymbolTableRecord
100
AcDbDimStyleTableRecord
  2
AM_ANSI$SH
 70
     0
  4
mm
 41
0.12
 42
0.05
 43
0.5
 44
0.1
 47
0.1
 48
0.1
 75
     1
 76
     1
 78
     7
 79
     2
140
0.12
141
0.0
146
0.71
147
0.06
173
     1
176
   256
177
   256
178
     2
274
     4
284
     7
340
55
343
393
371
    -1
372
    -1
1001
ACAD_DSTYLE_DIMBREAK
1070
   391
1040
0.125
1001
ACAD_DSTYLE_DIMJAG
1070
   388
1040
1.5
1001
ACAD_DSTYLE_DIMARC_LENGTH_SYMBOL
1070
   379
1070
     1
1001
ACAD_DSTYLE_DIM_LINETYPE
1070
   380
1005
5A
1001
ACAD_DSTYLE_DIM_EXT1_LINETYPE
1070
   381
1005
5A
1001
ACAD_DSTYLE_DIM_EXT2_LINETYPE
1070
   382
1005
5A
  0
ENDTAB
  0
TABLE
  2
BLOCK_RECORD
  5
1
330
0
100
AcDbSymbolTable
 70
     9
  0
BLOCK_RECORD
  5
6F
330
1
100
AcDbSymbolTableRecord
100
AcDbBlockTableRecord
  2
*Model_Space
340
72
  0
BLOCK_RECORD
  5
6B
330
1
100
AcDbSymbolTableRecord
100
AcDbBlockTableRecord
  2
*Paper_Space
340
6E
  0
BLOCK_RECORD
  5
90
330
1
100
AcDbSymbolTableRecord
100
AcDbBlockTableRecord
  2
BLKF0000
340
0
102
{BLKREFS
331
322
102
}
  0
BLOCK_RECORD
  5
97
330
1
100
AcDbSymbolTableRecord
100
AcDbBlockTableRecord
  2
BLKF0001
340
0
102
{BLKREFS
331
323
102
}
  0
BLOCK_RECORD
  5
9F
330
1
100
AcDbSymbolTableRecord
100
AcDbBlockTableRecord
  2
BLKF0002
340
0
102
{BLKREFS
331
324
102
}
  0
BLOCK_RECORD
  5
B1
330
1
100
AcDbSymbolTableRecord
100
AcDbBlockTableRecord
  2
BLKF0003
340
0
102
{BLKREFS
331
325
102
}
  0
BLOCK_RECORD
  5
F0
330
1
100
AcDbSymbolTableRecord
100
AcDbBlockTableRecord
  2
BLKF0004
340
0
102
{BLKREFS
331
326
102
}
  0
BLOCK_RECORD
  5
12F
330
1
100
AcDbSymbolTableRecord
100
AcDbBlockTableRecord
  2
BLKF0005
340
0
102
{BLKREFS
331
32B
102
}
  0
BLOCK_RECORD
  5
393
330
1
100
AcDbSymbolTableRecord
100
AcDbBlockTableRecord
  2
GENAXEH
340
0
  0
BLOCK_RECORD
  5
3A1
330
1
100
AcDbSymbolTableRecord
100
AcDbBlockTableRecord
  2
_ACMFILLEDHALF
340
0
  0
ENDTAB
  0
ENDSEC
  0
SECTION
  2
BLOCKS
  0
BLOCK
  5
70
330
6F
100
AcDbEntity
  8
0
100
AcDbBlockBegin
  2
*Model_Space
 70
     0
 10
0.0
 20
0.0
 30
0.0
  3
*Model_Space
  1

  0
ENDBLK
  5
71
330
6F
100
AcDbEntity
  8
0
100
AcDbBlockEnd
  0
BLOCK
  5
6C
330
6B
100
AcDbEntity
 67
     1
  8
0
100
AcDbBlockBegin
  2
*Paper_Space
 70
     0
 10
0.0
 20
0.0
 30
0.0
  3
*Paper_Space
  1

  0
ENDBLK
  5
6D
330
6B
100
AcDbEntity
 67
     1
  8
0
100
AcDbBlockEnd
  0
BLOCK
  5
91
330
90
100
AcDbEntity
  8
CSLAYER1
100
AcDbBlockBegin
  2
BLKF0000
 70
     0
 10
0.0
 20
0.0
 30
0.0
  3
BLKF0000
  1

  0
TEXT
  5
92
330
90
100
AcDbEntity
  8
CSLAYER1
 62
     7
100
AcDbText
 10
157.366967
 20
177.835163
 30
0.0
 40
4.0
  1
P
 50
344.8857454114365
 41
1.124999856030299
  7
JX_FONT
 72
     5
 11
160.2631899999999
 21
177.052929
 31
0.0
100
AcDbText
  0
TEXT
  5
93
330
90
100
AcDbEntity
  8
CSLAYER1
 62
     7
100
AcDbText
 10
153.356124
 20
177.891816
 30
0.0
 40
4.0
  1
O
 50
1.264257444162531
 41
1.125000111336305
  7
JX_FONT
 72
     5
 11
156.355394
 21
177.958007
 31
0.0
100
AcDbText
  0
TEXT
  5
94
330
90
100
AcDbEntity
  8
CSLAYER1
 62
     7
100
AcDbText
 10
161.199075
 20
176.649783
 30
0.0
 40
4.0
  1
E
 50
328.5072094591931
 41
1.125000128012493
  7
JX_FONT
 72
     5
 11
163.757193
 21
175.082609
 31
0.0
100
AcDbText
  0
TEXT
  5
95
330
90
100
AcDbEntity
  8
CSLAYER1
 62
     7
100
AcDbText
 10
164.541426
 20
174.431964
 30
0.0
 40
4.0
  1
N
 50
312.1286887158376
 41
1.124999913602246
  7
JX_FONT
 72
     5
 11
166.55382
 21
172.207044
 31
0.0
100
AcDbText
  0
ENDBLK
  5
96
330
90
100
AcDbEntity
  8
0
100
AcDbBlockEnd
  0
BLOCK
  5
98
330
97
100
AcDbEntity
  8
CSLAYER1
100
AcDbBlockBegin
  2
BLKF0001
 70
     0
 10
0.0
 20
0.0
 30
0.0
  3
BLKF0001
  1

  0
TEXT
  5
99
330
97
100
AcDbEntity
  8
CSLAYER1
 62
     7
100
AcDbText
 10
161.777967
 20
151.497958
 30
0.0
 40
4.0
  1
O
 50
201.8987331098623
 41
1.125000200922475
  7
JX_FONT
 72
     5
 11
158.994433
 21
150.379056
 31
0.0
100
AcDbText
  0
TEXT
  5
9A
330
97
100
AcDbEntity
  8
CSLAYER1
 62
     7
100
AcDbText
 10
164.271181
 20
153.189566
 30
0.0
 40
4.0
  1
L
 50
214.1826199511727
 41
1.125000401532434
  7
JX_FONT
 72
     5
 11
161.789427
 21
151.504068
 31
0.0
100
AcDbText
  0
TEXT
  5
9B
330
97
100
AcDbEntity
  8
CSLAYER1
 62
     7
100
AcDbText
 10
166.347438
 20
155.372889
 30
0.0
 40
4.0
  1
C
 50
226.4665049703062
 41
1.125000254496964
  7
JX_FONT
 72
     5
 11
164.281102
 21
153.197973
 31
0.0
100
AcDbText
  0
TEXT
  5
9C
330
97
100
AcDbEntity
  8
CSLAYER1
 62
     7
100
AcDbText
 10
158.98192
 20
150.375521
 30
0.0
 40
4.0
  1
S
 50
189.614831351961
 41
1.12500018831654
  7
JX_FONT
 72
     5
 11
156.024061
 21
149.874449
 31
0.0
100
AcDbText
  0
TEXT
  5
9D
330
97
100
AcDbEntity
  8
CSLAYER1
 62
     7
100
AcDbText
 10
156.011083
 20
149.873661
 30
0.0
 40
4.0
  1
E
 50
177.3309226782397
 41
1.124999827739311
  7
JX_FONT
 72
     5
 11
153.014338
 21
150.013363
 31
0.0
100
AcDbText
  0
ENDBLK
  5
9E
330
97
100
AcDbEntity
  8
0
100
AcDbBlockEnd
  0
BLOCK
  5
A0
330
9F
100
AcDbEntity
  8
CSLAYER1
100
AcDbBlockBegin
  2
BLKF0002
 70
     0
 10
0.0
 20
0.0
 30
0.0
  3
BLKF0002
  1

  0
TEXT
  5
A1
330
9F
100
AcDbEntity
  8
CSLAYER1
 62
     7
100
AcDbText
 10
141.164658
 20
162.778329
 30
0.0
 40
3.0
  1
 
 50
90.0
 41
1.277777777777768
  7
JX_FONT
 72
     5
 11
141.164658
 21
165.078329
 31
0.0
100
AcDbText
  0
TEXT
  5
A2
330
9F
100
AcDbEntity
  8
CSLAYER1
 62
     7
100
AcDbText
 10
141.541537
 20
160.503012
 30
0.0
 40
3.0
  1
I
 50
99.41763343979323
 41
1.533333161899125
  7
JX_FONT
 72
     5
 11
141.165189
 21
162.772012
 31
0.0
100
AcDbText
  0
TEXT
  5
A3
330
9F
100
AcDbEntity
  8
CSLAYER1
 62
     7
100
AcDbText
 10
142.285629
 20
158.320029
 30
0.0
 40
3.0
  1
R
 50
108.8353161520167
 41
1.149999992250531
  7
JX_FONT
 72
     5
 11
141.543076
 21
160.496865
 31
0.0
100
AcDbText
  0
TEXT
  5
A4
330
9F
100
AcDbEntity
  8
CSLAYER1
 62
     7
100
AcDbText
 10
143.376905
 20
156.288228
 30
0.0
 40
3.0
  1
I
 50
118.2529675021969
 41
1.533333097342592
  7
JX_FONT
 72
     5
 11
142.288165
 21
158.31422
 31
0.0
100
AcDbText
  0
TEXT
  5
A5
330
9F
100
AcDbEntity
  8
CSLAYER1
 62
     7
100
AcDbText
 10
144.785934
 20
154.462367
 30
0.0
 40
3.0
  1
A
 50
127.6705898131058
 41
1.150000091454343
  7
JX_FONT
 72
     5
 11
143.380356
 21
156.282903
 31
0.0
100
AcDbText
  0
TEXT
  5
A6
330
9F
100
AcDbEntity
  8
CSLAYER1
 62
     7
100
AcDbText
 10
146.474725
 20
152.891681
 30
0.0
 40
3.0
  1
Y
 50
137.088249530945
 41
1.149999631493201
  7
JX_FONT
 72
     5
 11
144.790198
 21
154.457684
 31
0.0
100
AcDbText
  0
TEXT
  5
A7
330
9F
100
AcDbEntity
  8
CSLAYER1
 62
     7
100
AcDbText
 10
148.397785
 20
151.6185
 30
0.0
 40
3.0
  1
I
 50
146.5059310266303
 41
1.533332702341896
  7
JX_FONT
 72
     5
 11
146.479717
 21
152.887756
 31
0.0
100
AcDbText
  0
TEXT
  5
A8
330
9F
100
AcDbEntity
  8
CSLAYER1
 62
     7
100
AcDbText
 10
150.503245
 20
150.677153
 30
0.0
 40
3.0
  1
M
 50
155.9235789131532
 41
1.150000042678373
  7
JX_FONT
 72
     5
 11
148.40334
 21
151.615449
 31
0.0
100
AcDbText
  0
TEXT
  5
A9
330
9F
100
AcDbEntity
  8
CSLAYER1
 62
     7
100
AcDbText
 10
141.165189
 20
165.084647
 30
0.0
 40
3.0
  1
V
 50
80.5823665602068
 41
1.149999871424343
  7
JX_FONT
 72
     5
 11
141.541537
 21
167.353647
 31
0.0
100
AcDbText
  0
TEXT
  5
AA
330
9F
100
AcDbEntity
  8
CSLAYER1
 62
     7
100
AcDbText
 10
141.543076
 20
167.359794
 30
0.0
 40
3.0
  1
A
 50
71.16468384798348
 41
1.149999992250545
  7
JX_FONT
 72
     5
 11
142.285629
 21
169.53663
 31
0.0
100
AcDbText
  0
TEXT
  5
AB
330
9F
100
AcDbEntity
  8
CSLAYER1
 62
     7
100
AcDbText
 10
142.288165
 20
169.542439
 30
0.0
 40
3.0
  1
L
 50
61.74703249780304
 41
1.149999823006944
  7
JX_FONT
 72
     5
 11
143.376905
 21
171.568431
 31
0.0
100
AcDbText
  0
TEXT
  5
AC
330
9F
100
AcDbEntity
  8
CSLAYER1
 62
     7
100
AcDbText
 10
143.380356
 20
171.573756
 30
0.0
 40
3.0
  1
V
 50
52.32941018689373
 41
1.150000091454332
  7
JX_FONT
 72
     5
 11
144.785934
 21
173.394292
 31
0.0
100
AcDbText
  0
TEXT
  5
AD
330
9F
100
AcDbEntity
  8
CSLAYER1
 62
     7
100
AcDbText
 10
144.790198
 20
173.398975
 30
0.0
 40
3.0
  1
E
 50
42.91175046905494
 41
1.149999631493201
  7
JX_FONT
 72
     5
 11
146.474725
 21
174.964978
 31
0.0
100
AcDbText
  0
TEXT
  5
AE
330
9F
100
AcDbEntity
  8
CSLAYER1
 62
     7
100
AcDbText
 10
146.479717
 20
174.968902
 30
0.0
 40
3.0
  1
 
 50
33.49408974789997
 41
1.277777558535364
  7
JX_FONT
 72
     5
 11
148.397785
 21
176.238159
 31
0.0
100
AcDbText
  0
TEXT
  5
AF
330
9F
100
AcDbEntity
  8
CSLAYER1
 62
     7
100
AcDbText
 10
148.403341
 20
176.241225
 30
0.0
 40
3.0
  1
R
 50
24.07643124949665
 41
1.149999586177322
  7
JX_FONT
 72
     5
 11
150.503245
 21
177.179521
 31
0.0
100
AcDbText
  0
ENDBLK
  5
B0
330
9F
100
AcDbEntity
  8
0
100
AcDbBlockEnd
  0
BLOCK
  5
B2
330
B1
100
AcDbEntity
  8
CSLAYER1
100
AcDbBlockBegin
  2
BLKF0003
 70
     0
 10
0.0
 20
0.0
 30
0.0
  3
BLKF0003
  1

  0
LINE
  5
B3
330
B1
100
AcDbEntity
  8
CSLAYER1
  6
Continuous
 62
     7
100
AcDbLine
 10
153.787611
 20
175.009801
 30
0.0
 11
155.206072
 21
176.428262
 31
0.0
  0
LINE
  5
B4
330
B1
100
AcDbEntity
  8
CSLAYER1
  6
Continuous
 62
     7
100
AcDbLine
 10
153.569165
 20
175.074198
 30
0.0
 11
155.062687
 21
176.56772
 31
0.0
  0
LINE
  5
B5
330
B1
100
AcDbEntity
  8
CSLAYER1
  6
Continuous
 62
     7
100
AcDbLine
 10
153.35072
 20
175.138596
 30
0.0
 11
155.039932
 21
176.827808
 31
0.0
  0
LINE
  5
B6
330
B1
100
AcDbEntity
  8
CSLAYER1
  6
Continuous
 62
     7
100
AcDbLine
 10
153.132275
 20
175.202993
 30
0.0
 11
155.017178
 21
177.087896
 31
0.0
  0
LINE
  5
B7
330
B1
100
AcDbEntity
  8
CSLAYER1
  6
Continuous
 62
     7
100
AcDbLine
 10
152.91383
 20
175.267391
 30
0.0
 11
154.994423
 21
177.347984
 31
0.0
  0
LINE
  5
B8
330
B1
100
AcDbEntity
  8
CSLAYER1
  6
Continuous
 62
     7
100
AcDbLine
 10
152.695385
 20
175.331788
 30
0.0
 11
154.709674
 21
177.346078
 31
0.0
  0
LINE
  5
B9
330
B1
100
AcDbEntity
  8
CSLAYER1
  6
Continuous
 62
     7
100
AcDbLine
 10
152.476939
 20
175.396186
 30
0.0
 11
153.799976
 21
176.719223
 31
0.0
  0
LINE
  5
BA
330
B1
100
AcDbEntity
  8
CSLAYER1
  6
Continuous
 62
     7
100
AcDbLine
 10
152.2584939999999
 20
175.460583
 30
0.0
 11
152.890278
 21
176.092367
 31
0.0
  0
LINE
  5
BB
330
B1
100
AcDbEntity
  8
CSLAYER1
  6
Continuous
 62
     7
100
AcDbLine
 10
154.006056
 20
174.945403
 30
0.0
 11
155.484881
 21
176.424229
 31
0.0
  0
LINE
  5
BC
330
B1
100
AcDbEntity
  8
CSLAYER1
  6
Continuous
 62
     7
100
AcDbLine
 10
154.224501
 20
174.881006
 30
0.0
 11
155.757748
 21
176.414253
 31
0.0
  0
LINE
  5
BD
330
B1
100
AcDbEntity
  8
CSLAYER1
  6
Continuous
 62
     7
100
AcDbLine
 10
154.442946
 20
174.816608
 30
0.0
 11
156.025025
 21
176.398687
 31
0.0
  0
LINE
  5
BE
330
B1
100
AcDbEntity
  8
CSLAYER1
  6
Continuous
 62
     7
100
AcDbLine
 10
154.661391
 20
174.752211
 30
0.0
 11
155.176461
 21
175.26728
 31
0.0
  0
LINE
  5
BF
330
B1
100
AcDbEntity
  8
CSLAYER1
  6
Continuous
 62
     7
100
AcDbLine
 10
154.879837
 20
174.6878129999999
 30
0.0
 11
155.1992159999999
 21
175.007192
 31
0.0
  0
LINE
  5
C0
330
B1
100
AcDbEntity
  8
CSLAYER1
  6
Continuous
 62
     7
100
AcDbLine
 10
155.098282
 20
174.623416
 30
0.0
 11
155.22197
 21
174.747104
 31
0.0
  0
LINE
  5
C1
330
B1
100
AcDbEntity
  8
CSLAYER1
  6
Continuous
 62
     7
100
AcDbLine
 10
156.144243
 20
175.386535
 30
0.0
 11
157.043963
 21
176.286254
 31
0.0
  0
LINE
  5
C2
330
B1
100
AcDbEntity
  8
CSLAYER1
  6
Continuous
 62
     7
100
AcDbLine
 10
156.402112
 20
175.36156
 30
0.0
 11
157.287336
 21
176.246784
 31
0.0
  0
LINE
  5
C3
330
B1
100
AcDbEntity
  8
CSLAYER1
  6
Continuous
 62
     7
100
AcDbLine
 10
156.654777
 20
175.331382
 30
0.0
 11
157.526557
 21
176.203163
 31
0.0
  0
LINE
  5
C4
330
B1
100
AcDbEntity
  8
CSLAYER1
  6
Continuous
 62
     7
100
AcDbLine
 10
156.902502
 20
175.296266
 30
0.0
 11
157.76179
 21
176.155553
 31
0.0
  0
LINE
  5
C5
330
B1
100
AcDbEntity
  8
CSLAYER1
  6
Continuous
 62
     7
100
AcDbLine
 10
157.145526
 20
175.256447
 30
0.0
 11
157.993186
 21
176.104106
 31
0.0
  0
LINE
  5
C6
330
B1
100
AcDbEntity
  8
CSLAYER1
  6
Continuous
 62
     7
100
AcDbLine
 10
157.384061
 20
175.212138
 30
0.0
 11
158.22088
 21
176.048957
 31
0.0
  0
LINE
  5
C7
330
B1
100
AcDbEntity
  8
CSLAYER1
  6
Continuous
 62
     7
100
AcDbLine
 10
157.618296
 20
175.163531
 30
0.0
 11
158.444997
 21
175.990232
 31
0.0
  0
LINE
  5
C8
330
B1
100
AcDbEntity
  8
CSLAYER1
  6
Continuous
 62
     7
100
AcDbLine
 10
157.848406
 20
175.110798
 30
0.0
 11
158.665652
 21
175.928045
 31
0.0
  0
LINE
  5
C9
330
B1
100
AcDbEntity
  8
CSLAYER1
  6
Continuous
 62
     7
100
AcDbLine
 10
158.074545
 20
175.054095
 30
0.0
 11
158.88295
 21
175.8625
 31
0.0
  0
LINE
  5
CA
330
B1
100
AcDbEntity
  8
CSLAYER1
  6
Continuous
 62
     7
100
AcDbLine
 10
158.296858
 20
174.993565
 30
0.0
 11
159.096989
 21
175.793695
 31
0.0
  0
LINE
  5
CB
330
B1
100
AcDbEntity
  8
CSLAYER1
  6
Continuous
 62
     7
100
AcDbLine
 10
158.515472
 20
174.929337
 30
0.0
 11
159.307856
 21
175.72172
 31
0.0
  0
LINE
  5
CC
330
B1
100
AcDbEntity
  8
CSLAYER1
  6
Continuous
 62
     7
100
AcDbLine
 10
158.730507
 20
174.861528
 30
0.0
 11
159.515634
 21
175.646655
 31
0.0
  0
LINE
  5
CD
330
B1
100
AcDbEntity
  8
CSLAYER1
  6
Continuous
 62
     7
100
AcDbLine
 10
158.94207
 20
174.790249
 30
0.0
 11
159.720399
 21
175.568577
 31
0.0
  0
LINE
  5
CE
330
B1
100
AcDbEntity
  8
CSLAYER1
  6
Continuous
 62
     7
100
AcDbLine
 10
159.15026
 20
174.715596
 30
0.0
 11
159.922221
 21
175.487557
 31
0.0
  0
LINE
  5
CF
330
B1
100
AcDbEntity
  8
CSLAYER1
  6
Continuous
 62
     7
100
AcDbLine
 10
159.355167
 20
174.63766
 30
0.0
 11
160.121166
 21
175.403659
 31
0.0
  0
LINE
  5
D0
330
B1
100
AcDbEntity
  8
CSLAYER1
  6
Continuous
 62
     7
100
AcDbLine
 10
159.556876
 20
174.556526
 30
0.0
 11
160.317292
 21
175.3169429999999
 31
0.0
  0
LINE
  5
D1
330
B1
100
AcDbEntity
  8
CSLAYER1
  6
Continuous
 62
     7
100
AcDbLine
 10
159.755461
 20
174.472269
 30
0.0
 11
160.510657
 21
175.227465
 31
0.0
  0
LINE
  5
D2
330
B1
100
AcDbEntity
  8
CSLAYER1
  6
Continuous
 62
     7
100
AcDbLine
 10
159.950995
 20
174.38496
 30
0.0
 11
160.701311
 21
175.135276
 31
0.0
  0
LINE
  5
D3
330
B1
100
AcDbEntity
  8
CSLAYER1
  6
Continuous
 62
     7
100
AcDbLine
 10
160.143541
 20
174.294663
 30
0.0
 11
160.889301
 21
175.040424
 31
0.0
  0
LINE
  5
D4
330
B1
100
AcDbEntity
  8
CSLAYER1
  6
Continuous
 62
     7
100
AcDbLine
 10
160.333158
 20
174.201438
 30
0.0
 11
161.074672
 21
174.942952
 31
0.0
  0
LINE
  5
D5
330
B1
100
AcDbEntity
  8
CSLAYER1
  6
Continuous
 62
     7
100
AcDbLine
 10
160.519902
 20
174.105339
 30
0.0
 11
161.257465
 21
174.842902
 31
0.0
  0
LINE
  5
D6
330
B1
100
AcDbEntity
  8
CSLAYER1
  6
Continuous
 62
     7
100
AcDbLine
 10
160.703822
 20
174.006416
 30
0.0
 11
161.437716
 21
174.74031
 31
0.0
  0
LINE
  5
D7
330
B1
100
AcDbEntity
  8
CSLAYER1
  6
Continuous
 62
     7
100
AcDbLine
 10
160.884964
 20
173.904715
 30
0.0
 11
161.615461
 21
174.635212
 31
0.0
  0
LINE
  5
D8
330
B1
100
AcDbEntity
  8
CSLAYER1
  6
Continuous
 62
     7
100
AcDbLine
 10
161.06337
 20
173.800278
 30
0.0
 11
161.79073
 21
174.527639
 31
0.0
  0
LINE
  5
D9
330
B1
100
AcDbEntity
  8
CSLAYER1
  6
Continuous
 62
     7
100
AcDbLine
 10
161.239078
 20
173.693144
 30
0.0
 11
161.963554
 21
174.41762
 31
0.0
  0
LINE
  5
DA
330
B1
100
AcDbEntity
  8
CSLAYER1
  6
Continuous
 62
     7
100
AcDbLine
 10
161.412123
 20
173.583347
 30
0.0
 11
162.133958
 21
174.305182
 31
0.0
  0
LINE
  5
DB
330
B1
100
AcDbEntity
  8
CSLAYER1
  6
Continuous
 62
     7
100
AcDbLine
 10
161.582538
 20
173.470919
 30
0.0
 11
162.301967
 21
174.190348
 31
0.0
  0
LINE
  5
DC
330
B1
100
AcDbEntity
  8
CSLAYER1
  6
Continuous
 62
     7
100
AcDbLine
 10
161.75035
 20
173.355888
 30
0.0
 11
162.467603
 21
174.073141
 31
0.0
  0
LINE
  5
DD
330
B1
100
AcDbEntity
  8
CSLAYER1
  6
Continuous
 62
     7
100
AcDbLine
 10
161.915585
 20
173.23828
 30
0.0
 11
162.630885
 21
173.953581
 31
0.0
  0
LINE
  5
DE
330
B1
100
AcDbEntity
  8
CSLAYER1
  6
Continuous
 62
     7
100
AcDbLine
 10
162.078266
 20
173.118119
 30
0.0
 11
162.791832
 21
173.831684
 31
0.0
  0
LINE
  5
DF
330
B1
100
AcDbEntity
  8
CSLAYER1
  6
Continuous
 62
     7
100
AcDbLine
 10
162.238413
 20
172.995423
 30
0.0
 11
162.950458
 21
173.707468
 31
0.0
  0
LINE
  5
E0
330
B1
100
AcDbEntity
  8
CSLAYER1
  6
Continuous
 62
     7
100
AcDbLine
 10
162.396044
 20
172.870212
 30
0.0
 11
163.106777
 21
173.580944
 31
0.0
  0
LINE
  5
E1
330
B1
100
AcDbEntity
  8
CSLAYER1
  6
Continuous
 62
     7
100
AcDbLine
 10
162.551175
 20
172.742499
 30
0.0
 11
163.260801
 21
173.452126
 31
0.0
  0
LINE
  5
E2
330
B1
100
AcDbEntity
  8
CSLAYER1
  6
Continuous
 62
     7
100
AcDbLine
 10
162.703816
 20
172.612298
 30
0.0
 11
163.41254
 21
173.321022
 31
0.0
  0
LINE
  5
E3
330
B1
100
AcDbEntity
  8
CSLAYER1
  6
Continuous
 62
     7
100
AcDbLine
 10
162.85398
 20
172.479619
 30
0.0
 11
163.562002
 21
173.187641
 31
0.0
  0
LINE
  5
E4
330
B1
100
AcDbEntity
  8
CSLAYER1
  6
Continuous
 62
     7
100
AcDbLine
 10
163.001673
 20
172.34447
 30
0.0
 11
163.709193
 21
173.051989
 31
0.0
  0
LINE
  5
E5
330
B1
100
AcDbEntity
  8
CSLAYER1
  6
Continuous
 62
     7
100
AcDbLine
 10
163.146902
 20
172.206856
 30
0.0
 11
163.854117
 21
172.914071
 31
0.0
  0
LINE
  5
E6
330
B1
100
AcDbEntity
  8
CSLAYER1
  6
Continuous
 62
     7
100
AcDbLine
 10
163.289671
 20
172.066781
 30
0.0
 11
163.996778
 21
172.773888
 31
0.0
  0
LINE
  5
E7
330
B1
100
AcDbEntity
  8
CSLAYER1
  6
Continuous
 62
     7
100
AcDbLine
 10
163.429979
 20
171.924247
 30
0.0
 11
164.137175
 21
172.631443
 31
0.0
  0
LINE
  5
E8
330
B1
100
AcDbEntity
  8
CSLAYER1
  6
Continuous
 62
     7
100
AcDbLine
 10
163.567827
 20
171.779252
 30
0.0
 11
164.275309
 21
172.486734
 31
0.0
  0
LINE
  5
E9
330
B1
100
AcDbEntity
  8
CSLAYER1
  6
Continuous
 62
     7
100
AcDbLine
 10
163.703211
 20
171.631793
 30
0.0
 11
164.411177
 21
172.339759
 31
0.0
  0
LINE
  5
EA
330
B1
100
AcDbEntity
  8
CSLAYER1
  6
Continuous
 62
     7
100
AcDbLine
 10
163.836125
 20
171.481865
 30
0.0
 11
164.544774
 21
172.190514
 31
0.0
  0
LINE
  5
EB
330
B1
100
AcDbEntity
  8
CSLAYER1
  6
Continuous
 62
     7
100
AcDbLine
 10
163.966562
 20
171.32946
 30
0.0
 11
164.676094
 21
172.038992
 31
0.0
  0
LINE
  5
EC
330
B1
100
AcDbEntity
  8
CSLAYER1
  6
Continuous
 62
     7
100
AcDbLine
 10
155.336232
 20
175.427051
 30
0.0
 11
156.287023
 21
176.377842
 31
0.0
  0
LINE
  5
ED
330
B1
100
AcDbEntity
  8
CSLAYER1
  6
Continuous
 62
     7
100
AcDbLine
 10
155.611664
 20
175.41964
 30
0.0
 11
156.544017
 21
176.351994
 31
0.0
  0
LINE
  5
EE
330
B1
100
AcDbEntity
  8
CSLAYER1
  6
Continuous
 62
     7
100
AcDbLine
 10
155.880873
 20
175.406007
 30
0.0
 11
156.796257
 21
176.32139
 31
0.0
  0
ENDBLK
  5
EF
330
B1
100
AcDbEntity
  8
0
100
AcDbBlockEnd
  0
BLOCK
  5
F1
330
F0
100
AcDbEntity
  8
CSLAYER1
100
AcDbBlockBegin
  2
BLKF0004
 70
     0
 10
0.0
 20
0.0
 30
0.0
  3
BLKF0004
  1

  0
LINE
  5
F2
330
F0
100
AcDbEntity
  8
CSLAYER1
  6
Continuous
 62
     7
100
AcDbLine
 10
153.787611
 20
152.846861
 30
0.0
 11
155.206072
 21
151.428399
 31
0.0
  0
LINE
  5
F3
330
F0
100
AcDbEntity
  8
CSLAYER1
  6
Continuous
 62
     7
100
AcDbLine
 10
153.569165
 20
152.782463
 30
0.0
 11
155.062687
 21
151.288941
 31
0.0
  0
LINE
  5
F4
330
F0
100
AcDbEntity
  8
CSLAYER1
  6
Continuous
 62
     7
100
AcDbLine
 10
153.35072
 20
152.718066
 30
0.0
 11
155.039932
 21
151.028854
 31
0.0
  0
LINE
  5
F5
330
F0
100
AcDbEntity
  8
CSLAYER1
  6
Continuous
 62
     7
100
AcDbLine
 10
153.132275
 20
152.6536679999999
 30
0.0
 11
155.017178
 21
150.768766
 31
0.0
  0
LINE
  5
F6
330
F0
100
AcDbEntity
  8
CSLAYER1
  6
Continuous
 62
     7
100
AcDbLine
 10
152.91383
 20
152.589271
 30
0.0
 11
154.994423
 21
150.508678
 31
0.0
  0
LINE
  5
F7
330
F0
100
AcDbEntity
  8
CSLAYER1
  6
Continuous
 62
     7
100
AcDbLine
 10
152.695385
 20
152.524873
 30
0.0
 11
154.709674
 21
150.510583
 31
0.0
  0
LINE
  5
F8
330
F0
100
AcDbEntity
  8
CSLAYER1
  6
Continuous
 62
     7
100
AcDbLine
 10
152.476939
 20
152.460476
 30
0.0
 11
153.799976
 21
151.137439
 31
0.0
  0
LINE
  5
F9
330
F0
100
AcDbEntity
  8
CSLAYER1
  6
Continuous
 62
     7
100
AcDbLine
 10
152.2584939999999
 20
152.396078
 30
0.0
 11
152.890278
 21
151.764295
 31
0.0
  0
LINE
  5
FA
330
F0
100
AcDbEntity
  8
CSLAYER1
  6
Continuous
 62
     7
100
AcDbLine
 10
154.006056
 20
152.911258
 30
0.0
 11
155.484881
 21
151.432433
 31
0.0
  0
LINE
  5
FB
330
F0
100
AcDbEntity
  8
CSLAYER1
  6
Continuous
 62
     7
100
AcDbLine
 10
154.224501
 20
152.975656
 30
0.0
 11
155.757748
 21
151.442408
 31
0.0
  0
LINE
  5
FC
330
F0
100
AcDbEntity
  8
CSLAYER1
  6
Continuous
 62
     7
100
AcDbLine
 10
154.442946
 20
153.040053
 30
0.0
 11
156.025025
 21
151.457974
 31
0.0
  0
LINE
  5
FD
330
F0
100
AcDbEntity
  8
CSLAYER1
  6
Continuous
 62
     7
100
AcDbLine
 10
154.661391
 20
153.104451
 30
0.0
 11
155.176461
 21
152.589381
 31
0.0
  0
LINE
  5
FE
330
F0
100
AcDbEntity
  8
CSLAYER1
  6
Continuous
 62
     7
100
AcDbLine
 10
154.879837
 20
153.168848
 30
0.0
 11
155.1992159999999
 21
152.849469
 31
0.0
  0
LINE
  5
FF
330
F0
100
AcDbEntity
  8
CSLAYER1
  6
Continuous
 62
     7
100
AcDbLine
 10
155.098282
 20
153.233246
 30
0.0
 11
155.22197
 21
153.109557
 31
0.0
  0
LINE
  5
100
330
F0
100
AcDbEntity
  8
CSLAYER1
  6
Continuous
 62
     7
100
AcDbLine
 10
156.144243
 20
152.470127
 30
0.0
 11
157.043963
 21
151.570408
 31
0.0
  0
LINE
  5
101
330
F0
100
AcDbEntity
  8
CSLAYER1
  6
Continuous
 62
     7
100
AcDbLine
 10
156.402112
 20
152.495101
 30
0.0
 11
157.287336
 21
151.609877
 31
0.0
  0
LINE
  5
102
330
F0
100
AcDbEntity
  8
CSLAYER1
  6
Continuous
 62
     7
100
AcDbLine
 10
156.654777
 20
152.525279
 30
0.0
 11
157.526557
 21
151.653499
 31
0.0
  0
LINE
  5
103
330
F0
100
AcDbEntity
  8
CSLAYER1
  6
Continuous
 62
     7
100
AcDbLine
 10
156.902502
 20
152.560396
 30
0.0
 11
157.76179
 21
151.701108
 31
0.0
  0
LINE
  5
104
330
F0
100
AcDbEntity
  8
CSLAYER1
  6
Continuous
 62
     7
100
AcDbLine
 10
157.145526
 20
152.600215
 30
0.0
 11
157.993186
 21
151.752556
 31
0.0
  0
LINE
  5
105
330
F0
100
AcDbEntity
  8
CSLAYER1
  6
Continuous
 62
     7
100
AcDbLine
 10
157.384061
 20
152.644523
 30
0.0
 11
158.22088
 21
151.807704
 31
0.0
  0
LINE
  5
106
330
F0
100
AcDbEntity
  8
CSLAYER1
  6
Continuous
 62
     7
100
AcDbLine
 10
157.618296
 20
152.693131
 30
0.0
 11
158.444997
 21
151.86643
 31
0.0
  0
LINE
  5
107
330
F0
100
AcDbEntity
  8
CSLAYER1
  6
Continuous
 62
     7
100
AcDbLine
 10
157.848406
 20
152.745864
 30
0.0
 11
158.665652
 21
151.928617
 31
0.0
  0
LINE
  5
108
330
F0
100
AcDbEntity
  8
CSLAYER1
  6
Continuous
 62
     7
100
AcDbLine
 10
158.074545
 20
152.802567
 30
0.0
 11
158.88295
 21
151.994162
 31
0.0
  0
LINE
  5
109
330
F0
100
AcDbEntity
  8
CSLAYER1
  6
Continuous
 62
     7
100
AcDbLine
 10
158.296858
 20
152.863097
 30
0.0
 11
159.096989
 21
152.062966
 31
0.0
  0
LINE
  5
10A
330
F0
100
AcDbEntity
  8
CSLAYER1
  6
Continuous
 62
     7
100
AcDbLine
 10
158.515472
 20
152.927325
 30
0.0
 11
159.307856
 21
152.134942
 31
0.0
  0
LINE
  5
10B
330
F0
100
AcDbEntity
  8
CSLAYER1
  6
Continuous
 62
     7
100
AcDbLine
 10
158.730507
 20
152.995133
 30
0.0
 11
159.515634
 21
152.210007
 31
0.0
  0
LINE
  5
10C
330
F0
100
AcDbEntity
  8
CSLAYER1
  6
Continuous
 62
     7
100
AcDbLine
 10
158.94207
 20
153.066413
 30
0.0
 11
159.720399
 21
152.288084
 31
0.0
  0
LINE
  5
10D
330
F0
100
AcDbEntity
  8
CSLAYER1
  6
Continuous
 62
     7
100
AcDbLine
 10
159.15026
 20
153.141066
 30
0.0
 11
159.922221
 21
152.369105
 31
0.0
  0
LINE
  5
10E
330
F0
100
AcDbEntity
  8
CSLAYER1
  6
Continuous
 62
     7
100
AcDbLine
 10
159.355167
 20
153.219001
 30
0.0
 11
160.121166
 21
152.453003
 31
0.0
  0
LINE
  5
10F
330
F0
100
AcDbEntity
  8
CSLAYER1
  6
Continuous
 62
     7
100
AcDbLine
 10
159.556876
 20
153.300136
 30
0.0
 11
160.317292
 21
152.539719
 31
0.0
  0
LINE
  5
110
330
F0
100
AcDbEntity
  8
CSLAYER1
  6
Continuous
 62
     7
100
AcDbLine
 10
159.755461
 20
153.384392
 30
0.0
 11
160.510657
 21
152.629197
 31
0.0
  0
LINE
  5
111
330
F0
100
AcDbEntity
  8
CSLAYER1
  6
Continuous
 62
     7
100
AcDbLine
 10
159.950995
 20
153.471701
 30
0.0
 11
160.701311
 21
152.721386
 31
0.0
  0
LINE
  5
112
330
F0
100
AcDbEntity
  8
CSLAYER1
  6
Continuous
 62
     7
100
AcDbLine
 10
160.143541
 20
153.561998
 30
0.0
 11
160.889301
 21
152.816238
 31
0.0
  0
LINE
  5
113
330
F0
100
AcDbEntity
  8
CSLAYER1
  6
Continuous
 62
     7
100
AcDbLine
 10
160.333158
 20
153.655224
 30
0.0
 11
161.074672
 21
152.91371
 31
0.0
  0
LINE
  5
114
330
F0
100
AcDbEntity
  8
CSLAYER1
  6
Continuous
 62
     7
100
AcDbLine
 10
160.519902
 20
153.751323
 30
0.0
 11
161.257465
 21
153.01376
 31
0.0
  0
LINE
  5
115
330
F0
100
AcDbEntity
  8
CSLAYER1
  6
Continuous
 62
     7
100
AcDbLine
 10
160.703822
 20
153.850246
 30
0.0
 11
161.437716
 21
153.116351
 31
0.0
  0
LINE
  5
116
330
F0
100
AcDbEntity
  8
CSLAYER1
  6
Continuous
 62
     7
100
AcDbLine
 10
160.884964
 20
153.951946
 30
0.0
 11
161.615461
 21
153.221449
 31
0.0
  0
LINE
  5
117
330
F0
100
AcDbEntity
  8
CSLAYER1
  6
Continuous
 62
     7
100
AcDbLine
 10
161.06337
 20
154.056383
 30
0.0
 11
161.79073
 21
153.329023
 31
0.0
  0
LINE
  5
118
330
F0
100
AcDbEntity
  8
CSLAYER1
  6
Continuous
 62
     7
100
AcDbLine
 10
161.239078
 20
154.163518
 30
0.0
 11
161.963554
 21
153.439042
 31
0.0
  0
LINE
  5
119
330
F0
100
AcDbEntity
  8
CSLAYER1
  6
Continuous
 62
     7
100
AcDbLine
 10
161.412123
 20
154.273315
 30
0.0
 11
162.133958
 21
153.55148
 31
0.0
  0
LINE
  5
11A
330
F0
100
AcDbEntity
  8
CSLAYER1
  6
Continuous
 62
     7
100
AcDbLine
 10
161.582538
 20
154.385743
 30
0.0
 11
162.301967
 21
153.666314
 31
0.0
  0
LINE
  5
11B
330
F0
100
AcDbEntity
  8
CSLAYER1
  6
Continuous
 62
     7
100
AcDbLine
 10
161.75035
 20
154.500774
 30
0.0
 11
162.467603
 21
153.78352
 31
0.0
  0
LINE
  5
11C
330
F0
100
AcDbEntity
  8
CSLAYER1
  6
Continuous
 62
     7
100
AcDbLine
 10
161.915585
 20
154.618381
 30
0.0
 11
162.630885
 21
153.903081
 31
0.0
  0
LINE
  5
11D
330
F0
100
AcDbEntity
  8
CSLAYER1
  6
Continuous
 62
     7
100
AcDbLine
 10
162.078266
 20
154.738543
 30
0.0
 11
162.791832
 21
154.024977
 31
0.0
  0
LINE
  5
11E
330
F0
100
AcDbEntity
  8
CSLAYER1
  6
Continuous
 62
     7
100
AcDbLine
 10
162.238413
 20
154.8612379999999
 30
0.0
 11
162.950458
 21
154.149194
 31
0.0
  0
LINE
  5
11F
330
F0
100
AcDbEntity
  8
CSLAYER1
  6
Continuous
 62
     7
100
AcDbLine
 10
162.396044
 20
154.98645
 30
0.0
 11
163.106777
 21
154.2757169999999
 31
0.0
  0
LINE
  5
120
330
F0
100
AcDbEntity
  8
CSLAYER1
  6
Continuous
 62
     7
100
AcDbLine
 10
162.551175
 20
155.114163
 30
0.0
 11
163.260801
 21
154.404536
 31
0.0
  0
LINE
  5
121
330
F0
100
AcDbEntity
  8
CSLAYER1
  6
Continuous
 62
     7
100
AcDbLine
 10
162.703816
 20
155.244364
 30
0.0
 11
163.41254
 21
154.53564
 31
0.0
  0
LINE
  5
122
330
F0
100
AcDbEntity
  8
CSLAYER1
  6
Continuous
 62
     7
100
AcDbLine
 10
162.85398
 20
155.377043
 30
0.0
 11
163.562002
 21
154.669021
 31
0.0
  0
LINE
  5
123
330
F0
100
AcDbEntity
  8
CSLAYER1
  6
Continuous
 62
     7
100
AcDbLine
 10
163.001673
 20
155.512192
 30
0.0
 11
163.709193
 21
154.804673
 31
0.0
  0
LINE
  5
124
330
F0
100
AcDbEntity
  8
CSLAYER1
  6
Continuous
 62
     7
100
AcDbLine
 10
163.146902
 20
155.649806
 30
0.0
 11
163.854117
 21
154.942591
 31
0.0
  0
LINE
  5
125
330
F0
100
AcDbEntity
  8
CSLAYER1
  6
Continuous
 62
     7
100
AcDbLine
 10
163.289671
 20
155.78988
 30
0.0
 11
163.996778
 21
155.082773
 31
0.0
  0
LINE
  5
126
330
F0
100
AcDbEntity
  8
CSLAYER1
  6
Continuous
 62
     7
100
AcDbLine
 10
163.429979
 20
155.932414
 30
0.0
 11
164.137175
 21
155.225218
 31
0.0
  0
LINE
  5
127
330
F0
100
AcDbEntity
  8
CSLAYER1
  6
Continuous
 62
     7
100
AcDbLine
 10
163.567827
 20
156.077409
 30
0.0
 11
164.275309
 21
155.369927
 31
0.0
  0
LINE
  5
128
330
F0
100
AcDbEntity
  8
CSLAYER1
  6
Continuous
 62
     7
100
AcDbLine
 10
163.703211
 20
156.224868
 30
0.0
 11
164.411177
 21
155.516902
 31
0.0
  0
LINE
  5
129
330
F0
100
AcDbEntity
  8
CSLAYER1
  6
Continuous
 62
     7
100
AcDbLine
 10
163.836125
 20
156.374797
 30
0.0
 11
164.544774
 21
155.666148
 31
0.0
  0
LINE
  5
12A
330
F0
100
AcDbEntity
  8
CSLAYER1
  6
Continuous
 62
     7
100
AcDbLine
 10
163.966562
 20
156.527202
 30
0.0
 11
164.676094
 21
155.81767
 31
0.0
  0
LINE
  5
12B
330
F0
100
AcDbEntity
  8
CSLAYER1
  6
Continuous
 62
     7
100
AcDbLine
 10
155.336232
 20
152.429611
 30
0.0
 11
156.287023
 21
151.47882
 31
0.0
  0
LINE
  5
12C
330
F0
100
AcDbEntity
  8
CSLAYER1
  6
Continuous
 62
     7
100
AcDbLine
 10
155.611664
 20
152.437021
 30
0.0
 11
156.544017
 21
151.504668
 31
0.0
  0
LINE
  5
12D
330
F0
100
AcDbEntity
  8
CSLAYER1
  6
Continuous
 62
     7
100
AcDbLine
 10
155.880873
 20
152.450655
 30
0.0
 11
156.796257
 21
151.535271
 31
0.0
  0
ENDBLK
  5
12E
330
F0
100
AcDbEntity
  8
0
100
AcDbBlockEnd
  0
BLOCK
  5
130
330
12F
100
AcDbEntity
  8
CSLAYER1
100
AcDbBlockBegin
  2
BLKF0005
 70
     0
 10
0.0
 20
0.0
 30
0.0
  3
BLKF0005
  1

  0
LINE
  5
131
330
12F
100
AcDbEntity
  8
CSLAYER1
  6
Continuous
 62
     7
100
AcDbLine
 10
82.13285500000001
 20
87.643436
 30
0.0
 11
82.13285500000001
 21
90.70523900000001
 31
0.0
  0
LINE
  5
132
330
12F
100
AcDbEntity
  8
CSLAYER1
  6
Continuous
 62
     7
100
AcDbLine
 10
84.17405699999999
 20
90.70523900000001
 30
0.0
 11
84.17405699999999
 21
87.643436
 31
0.0
  0
LINE
  5
133
330
12F
100
AcDbEntity
  8
CSLAYER1
  6
Continuous
 62
     7
100
AcDbLine
 10
82.13285500000001
 20
90.70523900000001
 30
0.0
 11
83.153456
 21
88.86815699999999
 31
0.0
  0
LINE
  5
134
330
12F
100
AcDbEntity
  8
CSLAYER1
  6
Continuous
 62
     7
100
AcDbLine
 10
83.153456
 20
88.86815699999999
 30
0.0
 11
84.17405699999999
 21
90.70523900000001
 31
0.0
  0
ARC
  5
135
330
12F
100
AcDbEntity
  8
CSLAYER1
  6
Continuous
 62
     7
100
AcDbCircle
 10
85.597121
 20
89.73577399999999
 30
0.0
 40
0.9694639999999999
100
AcDbArc
 50
27.10944699999999
 51
161.524667
  0
ARC
  5
136
330
12F
100
AcDbEntity
  8
CSLAYER1
  6
Continuous
 62
     7
100
AcDbCircle
 10
85.16162299999999
 20
89.881282
 30
0.0
 40
0.5103
100
AcDbArc
 50
161.524667
 51
247.5
  0
LINE
  5
137
330
12F
100
AcDbEntity
  8
CSLAYER1
  6
Continuous
 62
     7
100
AcDbLine
 10
84.966339
 20
89.40982599999999
 30
0.0
 11
86.210474
 21
88.894488
 31
0.0
  0
ARC
  5
138
330
12F
100
AcDbEntity
  8
CSLAYER1
  6
Continuous
 62
     7
100
AcDbCircle
 10
86.01519000000001
 20
88.42303199999999
 30
0.0
 40
0.5103
100
AcDbArc
 50
335.574526
 51
67.5
  0
ARC
  5
139
330
12F
100
AcDbEntity
  8
CSLAYER1
  6
Continuous
 62
     7
100
AcDbCircle
 10
85.597121
 20
88.61290100000001
 30
0.0
 40
0.9694639999999999
100
AcDbArc
 50
201.467778
 51
335.574526
  0
ENDBLK
  5
13A
330
12F
100
AcDbEntity
  8
0
100
AcDbBlockEnd
  0
BLOCK
  5
395
330
393
100
AcDbEntity
  8
0
100
AcDbBlockBegin
  2
GENAXEH
 70
     0
 10
0.0
 20
0.0
 30
0.0
  3
GENAXEH
  1

  0
LINE
  5
394
330
393
100
AcDbEntity
  8
0
100
AcDbLine
 10
-1.0
 20
0.0
 30
0.0
 11
1.0
 21
0.0
 31
0.0
  0
ENDBLK
  5
396
330
393
100
AcDbEntity
  8
0
100
AcDbBlockEnd
  0
BLOCK
  5
3A2
330
3A1
100
AcDbEntity
  8
0
100
AcDbBlockBegin
  2
_ACMFILLEDHALF
 70
     0
 10
0.0
 20
0.0
 30
0.0
  3
_ACMFILLEDHALF
  1

  0
TRACE
  5
3A4
330
3A1
100
AcDbEntity
  8
CSLAYER1
 62
     0
100
AcDbTrace
 10
-0.8
 20
0.0
 30
0.0
 11
-1.0
 21
0.166666666
 31
0.0
 12
0.0
 22
0.0
 32
0.0
 13
0.0
 23
0.0
 33
0.0
  0
LINE
  5
3A5
330
3A1
100
AcDbEntity
  8
CSLAYER1
 62
     0
100
AcDbLine
 10
-1.0
 20
0.0
 30
0.0
 11
-0.8
 21
0.0
 31
0.0
  0
ENDBLK
  5
3A3
330
3A1
100
AcDbEntity
  8
0
100
AcDbBlockEnd
  0
ENDSEC
  0
SECTION
  2
ENTITIES
  0
LINE
  5
13B
330
6F
100
AcDbEntity
  8
CSLAYER1
  6
Continuous
 62
     7
100
AcDbLine
 10
10.0
 20
15.0
 30
0.0
 11
287.0
 21
15.0
 31
0.0
  0
LINE
  5
13C
330
6F
100
AcDbEntity
  8
CSLAYER1
  6
Continuous
 62
     7
100
AcDbLine
 10
287.0
 20
15.0
 30
0.0
 11
287.0
 21
200.0
 31
0.0
  0
LINE
  5
13D
330
6F
100
AcDbEntity
  8
CSLAYER1
  6
Continuous
 62
     7
100
AcDbLine
 10
287.0
 20
200.0
 30
0.0
 11
10.0
 21
200.0
 31
0.0
  0
LINE
  5
13E
330
6F
100
AcDbEntity
  8
CSLAYER1
  6
Continuous
 62
     7
100
AcDbLine
 10
10.0
 20
200.0
 30
0.0
 11
10.0
 21
15.0
 31
0.0
  0
LINE
  5
13F
330
6F
100
AcDbEntity
  8
CSLAYER1
  6
Continuous
 62
     7
100
AcDbLine
 10
227.0
 20
56.462186
 30
0.0
 11
227.0
 21
19.462186
 31
0.0
  0
LINE
  5
140
330
6F
100
AcDbEntity
  8
CSLAYER1
  6
Continuous
 62
     7
100
AcDbLine
 10
227.0
 20
19.462186
 30
0.0
 11
287.0
 21
19.462186
 31
0.0
  0
LINE
  5
141
330
6F
100
AcDbEntity
  8
CSLAYER1
  6
Continuous
 62
     7
100
AcDbLine
 10
287.0
 20
19.462186
 30
0.0
 11
287.0
 21
56.462186
 31
0.0
  0
LINE
  5
142
330
6F
100
AcDbEntity
  8
CSLAYER1
  6
Continuous
 62
     7
100
AcDbLine
 10
287.0
 20
56.462186
 30
0.0
 11
227.0
 21
56.462186
 31
0.0
  0
LINE
  5
143
330
6F
100
AcDbEntity
  8
CSLAYER1
  6
Continuous
 62
     7
100
AcDbLine
 10
247.0
 20
56.462186
 30
0.0
 11
247.0
 21
26.462186
 31
0.0
  0
LINE
  5
144
330
6F
100
AcDbEntity
  8
CSLAYER1
  6
Continuous
 62
     7
100
AcDbLine
 10
227.0
 20
26.462186
 30
0.0
 11
287.0
 21
26.462186
 31
0.0
  0
LINE
  5
145
330
6F
100
AcDbEntity
  8
CSLAYER1
  6
Continuous
 62
     7
100
AcDbLine
 10
287.0
 20
32.462186
 30
0.0
 11
227.0
 21
32.462186
 31
0.0
  0
LINE
  5
146
330
6F
100
AcDbEntity
  8
CSLAYER1
  6
Continuous
 62
     7
100
AcDbLine
 10
227.0
 20
38.462186
 30
0.0
 11
287.0
 21
38.462186
 31
0.0
  0
LINE
  5
147
330
6F
100
AcDbEntity
  8
CSLAYER1
  6
Continuous
 62
     7
100
AcDbLine
 10
287.0
 20
44.46218599999999
 30
0.0
 11
227.0
 21
44.46218599999999
 31
0.0
  0
LINE
  5
148
330
6F
100
AcDbEntity
  8
CSLAYER1
  6
Continuous
 62
     7
100
AcDbLine
 10
227.0
 20
50.46218599999999
 30
0.0
 11
287.0
 21
50.46218599999999
 31
0.0
  0
TEXT
  5
149
330
6F
100
AcDbEntity
  8
CSLAYER1
 62
     7
100
AcDbText
 10
234.0
 20
51.46218499999999
 30
0.0
 40
4.0
  1
品名
 41
0.7258064516129032
  7
JX_FONT
 72
     5
 11
240.0
 21
51.46218499999999
 31
0.0
100
AcDbText
  0
TEXT
  5
14A
330
6F
100
AcDbEntity
  8
CSLAYER1
 62
     7
100
AcDbText
 10
229.5
 20
39.462185
 30
0.0
 40
4.0
  1
製品コード
 41
0.6696428571428572
  7
JX_FONT
 72
     5
 11
244.5
 21
39.462185
 31
0.0
100
AcDbText
  0
TEXT
  5
14B
330
6F
100
AcDbEntity
  8
CSLAYER1
 62
     7
100
AcDbText
 10
231.0
 20
33.462185
 30
0.0
 40
4.0
  1
営業図番
 41
0.6617647058823528
  7
JX_FONT
 72
     5
 11
243.0
 21
33.462185
 31
0.0
100
AcDbText
  0
TEXT
  5
14C
330
6F
100
AcDbEntity
  8
CSLAYER1
 62
     7
100
AcDbText
 10
248.0
 20
51.46218499999999
 30
0.0
 40
4.0
  1
液化石油ガス容器用弁
 41
0.5326704545454547
  7
JX_FONT
 72
     5
 11
273.0
 21
51.46218499999999
 31
0.0
100
AcDbText
  0
TEXT
  5
14D
330
6F
100
AcDbEntity
  8
CSLAYER1
 62
     7
100
AcDbText
 10
234.0
 20
45.462185
 30
0.0
 40
4.0
  1
型式
 41
0.703125
  7
JX_FONT
 72
     5
 11
240.0
 21
45.462185
 31
0.0
100
AcDbText
  0
TEXT
  5
14E
330
6F
100
AcDbEntity
  8
CSLAYER1
 62
     7
100
AcDbText
 10
248.0
 20
45.462185
 30
0.0
 40
4.0
  1
V-8
 41
0.84375
  7
JX_FONT
 72
     5
 11
257.0
 21
45.462185
 31
0.0
100
AcDbText
  0
TEXT
  5
14F
330
6F
100
AcDbEntity
  8
CSLAYER1
 62
     7
100
AcDbText
 10
248.0
 20
39.462185
 30
0.0
 40
4.0
  1
V-8-00
 41
0.6617647058823528
  7
JX_FONT
 72
     5
 11
263.0
 21
39.462185
 31
0.0
100
AcDbText
  0
TEXT
  5
150
330
6F
100
AcDbEntity
  8
CSLAYER1
 62
     7
100
AcDbText
 10
248.0
 20
33.462185
 30
0.0
 40
4.0
  1
B-12054-00
 41
0.7758620689655171
  7
JX_FONT
 72
     5
 11
278.0
 21
33.462185
 31
0.0
100
AcDbText
  0
TEXT
  5
151
330
6F
100
AcDbEntity
  8
CSLAYER1
 62
     7
100
AcDbText
 10
233.0
 20
20.462185
 30
0.0
 40
5.0
  1
株式会社宮入バルブ製作所
 41
0.6792452830188678
  7
JX_FONT
 72
     5
 11
281.0
 21
20.462185
 31
0.0
100
AcDbText
  0
TEXT
  5
152
330
6F
100
AcDbEntity
  8
CSLAYER1
 62
     7
100
AcDbText
 10
241.0
 20
15.962185
 30
0.0
 40
3.0
  1
FILE No.V-8-00.dxf
 41
0.6177606177606178
  7
JX_FONT
 72
     5
 11
273.0
 21
15.962185
 31
0.0
100
AcDbText
  0
TEXT
  5
153
330
6F
100
AcDbEntity
  8
CSLAYER1
 62
     7
100
AcDbText
 10
231.0
 20
27.462185
 30
0.0
 40
4.0
  1
本体材質
 41
0.6617647058823529
  7
JX_FONT
 72
     5
 11
243.0
 21
27.462185
 31
0.0
100
AcDbText
  0
TEXT
  5
154
330
6F
100
AcDbEntity
  8
CSLAYER1
 62
     7
100
AcDbText
 10
248.0
 20
27.462185
 30
0.0
 40
4.0
  1
C3771B
 41
0.7941176470588235
  7
JX_FONT
 72
     5
 11
266.0
 21
27.462185
 31
0.0
100
AcDbText
  0
TEXT
  5
155
330
6F
100
AcDbEntity
  8
CSLAYER1
 62
     7
100
AcDbText
 10
239.613327
 20
63.656693
 30
0.0
 40
6.0
  1
1/1
 41
0.8
  7
JX_FONT
 72
     5
 11
251.613327
 21
63.656693
 31
0.0
100
AcDbText
  0
LINE
  5
156
330
6F
100
AcDbEntity
  8
CSLAYER1
  6
Continuous
 62
     7
100
AcDbLine
 10
75.837389
 20
33.709581
 30
0.0
 11
92.170523
 21
33.709581
 31
0.0
  0
LINE
  5
157
330
6F
100
AcDbEntity
  8
CSLAYER1
  6
Continuous
 62
     7
100
AcDbLine
 10
92.170523
 20
33.709581
 30
0.0
 11
93.449865
 21
35.709581
 31
0.0
  0
LINE
  5
158
330
6F
100
AcDbEntity
  8
CSLAYER1
  6
Continuous
 62
     7
100
AcDbLine
 10
93.449865
 20
35.709581
 30
0.0
 11
74.558047
 21
35.709581
 31
0.0
  0
LINE
  5
159
330
6F
100
AcDbEntity
  8
CSLAYER1
  6
Continuous
 62
     7
100
AcDbLine
 10
74.558047
 20
35.709581
 30
0.0
 11
73.467388
 21
54.61032900000001
 31
0.0
  0
ARC
  5
15A
330
6F
100
AcDbEntity
  8
CSLAYER1
  6
Continuous
 62
     7
100
AcDbCircle
 10
74.003956
 20
53.20958100000001
 30
0.0
 40
1.5
100
AcDbArc
 50
104.477512
 51
110.959755
  0
ARC
  5
15B
330
6F
100
AcDbEntity
  8
CSLAYER1
  6
Continuous
 62
     7
100
AcDbCircle
 10
73.253956
 20
56.114318
 30
0.0
 40
1.5
100
AcDbArc
 50
284.477512
 51
0.0
  0
LINE
  5
15C
330
6F
100
AcDbEntity
  8
CSLAYER1
  6
Continuous
 62
     7
100
AcDbLine
 10
74.753956
 20
56.114318
 30
0.0
 11
74.753956
 21
57.482403
 31
0.0
  0
ARC
  5
15D
330
6F
100
AcDbEntity
  8
CSLAYER1
  6
Continuous
 62
     7
100
AcDbCircle
 10
73.253956
 20
57.482403
 30
0.0
 40
1.5
100
AcDbArc
 50
0.0
 51
65.37568199999999
  0
LINE
  5
15E
330
6F
100
AcDbEntity
  8
CSLAYER1
  6
Continuous
 62
     7
100
AcDbLine
 10
74.503956
 20
58.70958100000001
 30
0.0
 11
91.50395600000001
 21
58.70958100000001
 31
0.0
  0
ARC
  5
15F
330
6F
100
AcDbEntity
  8
CSLAYER1
  6
Continuous
 62
     7
100
AcDbCircle
 10
91.50395600000001
 20
60.20958100000001
 30
0.0
 40
1.5
100
AcDbArc
 50
270.0
 51
0.0
  0
LINE
  5
160
330
6F
100
AcDbEntity
  8
CSLAYER1
  6
Continuous
 62
     7
100
AcDbLine
 10
93.00395599999999
 20
60.20958100000001
 30
0.0
 11
93.00395599999999
 21
70.209581
 31
0.0
  0
ARC
  5
161
330
6F
100
AcDbEntity
  8
CSLAYER1
  6
Continuous
 62
     7
100
AcDbCircle
 10
91.50395600000001
 20
70.209581
 30
0.0
 40
1.5
100
AcDbArc
 50
0.0
 51
90.0
  0
LINE
  5
162
330
6F
100
AcDbEntity
  8
CSLAYER1
  6
Continuous
 62
     7
100
AcDbLine
 10
91.50395600000001
 20
71.709581
 30
0.0
 11
74.503956
 21
71.709581
 31
0.0
  0
ARC
  5
163
330
6F
100
AcDbEntity
  8
CSLAYER1
  6
Continuous
 62
     7
100
AcDbCircle
 10
74.503956
 20
70.209581
 30
0.0
 40
1.5
100
AcDbArc
 50
90.0
 51
180.0
  0
LINE
  5
164
330
6F
100
AcDbEntity
  8
CSLAYER1
  6
Continuous
 62
     7
100
AcDbLine
 10
73.003956
 20
70.209581
 30
0.0
 11
73.003956
 21
60.20958100000001
 31
0.0
  0
ARC
  5
165
330
6F
100
AcDbEntity
  8
CSLAYER1
  6
Continuous
 62
     7
100
AcDbCircle
 10
74.503956
 20
60.20958100000001
 30
0.0
 40
1.5
100
AcDbArc
 50
180.0
 51
270.0
  0
ARC
  5
166
330
6F
100
AcDbEntity
  8
CSLAYER1
  6
Continuous
 62
     7
100
AcDbCircle
 10
71.675529
 20
59.209581
 30
0.0
 40
1.5
100
AcDbArc
 50
19.471221
 51
90.0
  0
LINE
  5
167
330
6F
100
AcDbEntity
  8
CSLAYER1
  6
Continuous
 62
     7
100
AcDbLine
 10
71.675529
 20
60.70958100000001
 30
0.0
 11
58.162269
 21
60.70958100000001
 31
0.0
  0
ARC
  5
168
330
6F
100
AcDbEntity
  8
CSLAYER1
  6
Continuous
 62
     7
100
AcDbCircle
 10
58.162269
 20
59.209581
 30
0.0
 40
1.5
100
AcDbArc
 50
90.0
 51
123.55731
  0
ARC
  5
169
330
6F
100
AcDbEntity
  8
CSLAYER1
  6
Continuous
 62
     7
100
AcDbCircle
 10
56.503956
 20
61.709581
 30
0.0
 40
1.5
100
AcDbArc
 50
270.0
 51
303.5573100000001
  0
LINE
  5
16A
330
6F
100
AcDbEntity
  8
CSLAYER1
  6
Continuous
 62
     7
100
AcDbLine
 10
56.503956
 20
60.20958100000001
 30
0.0
 11
53.003956
 21
60.20958100000001
 31
0.0
  0
ARC
  5
16B
330
6F
100
AcDbEntity
  8
CSLAYER1
  6
Continuous
 62
     7
100
AcDbCircle
 10
53.003956
 20
61.20958100000001
 30
0.0
 40
1.0
100
AcDbArc
 50
180.0
 51
270.0
  0
LINE
  5
16C
330
6F
100
AcDbEntity
  8
CSLAYER1
  6
Continuous
 62
     7
100
AcDbLine
 10
52.003956
 20
61.20958100000001
 30
0.0
 11
52.003956
 21
87.209581
 31
0.0
  0
ARC
  5
16D
330
6F
100
AcDbEntity
  8
CSLAYER1
  6
Continuous
 62
     7
100
AcDbCircle
 10
53.003956
 20
87.209581
 30
0.0
 40
1.0
100
AcDbArc
 50
90.0
 51
180.0
  0
LINE
  5
16E
330
6F
100
AcDbEntity
  8
CSLAYER1
  6
Continuous
 62
     7
100
AcDbLine
 10
53.003956
 20
88.209581
 30
0.0
 11
56.503956
 21
88.209581
 31
0.0
  0
ARC
  5
16F
330
6F
100
AcDbEntity
  8
CSLAYER1
  6
Continuous
 62
     7
100
AcDbCircle
 10
56.503956
 20
86.709581
 30
0.0
 40
1.5
100
AcDbArc
 50
56.44269000000001
 51
90.0
  0
ARC
  5
170
330
6F
100
AcDbEntity
  8
CSLAYER1
  6
Continuous
 62
     7
100
AcDbCircle
 10
58.162269
 20
89.209581
 30
0.0
 40
1.5
100
AcDbArc
 50
236.44269
 51
270.0
  0
LINE
  5
171
330
6F
100
AcDbEntity
  8
CSLAYER1
  6
Continuous
 62
     7
100
AcDbLine
 10
58.162269
 20
87.70958099999999
 30
0.0
 11
69.503956
 21
87.70958099999999
 31
0.0
  0
ARC
  5
172
330
6F
100
AcDbEntity
  8
CSLAYER1
  6
Continuous
 62
     7
100
AcDbCircle
 10
69.503956
 20
89.209581
 30
0.0
 40
1.5
100
AcDbArc
 50
270.0
 51
0.0
  0
LINE
  5
173
330
6F
100
AcDbEntity
  8
CSLAYER1
  6
Continuous
 62
     7
100
AcDbLine
 10
71.003956
 20
89.209581
 30
0.0
 11
71.003956
 21
92.473513
 31
0.0
  0
ARC
  5
174
330
6F
100
AcDbEntity
  8
CSLAYER1
  6
Continuous
 62
     7
100
AcDbCircle
 10
69.503956
 20
92.473513
 30
0.0
 40
1.5
100
AcDbArc
 50
0.0
 51
48.189685
  0
ARC
  5
175
330
6F
100
AcDbEntity
  8
CSLAYER1
  6
Continuous
 62
     7
100
AcDbCircle
 10
71.503956
 20
94.709581
 30
0.0
 40
1.5
100
AcDbArc
 50
180.0
 51
228.189685
  0
LINE
  5
176
330
6F
100
AcDbEntity
  8
CSLAYER1
  6
Continuous
 62
     7
100
AcDbLine
 10
70.003956
 20
94.709581
 30
0.0
 11
70.003956
 21
95.709581
 31
0.0
  0
ARC
  5
177
330
6F
100
AcDbEntity
  8
CSLAYER1
  6
Continuous
 62
     7
100
AcDbCircle
 10
71.003956
 20
95.709581
 30
0.0
 40
1.0
100
AcDbArc
 50
90.0
 51
180.0
  0
LINE
  5
178
330
6F
100
AcDbEntity
  8
CSLAYER1
  6
Continuous
 62
     7
100
AcDbLine
 10
71.003956
 20
96.709581
 30
0.0
 11
97.003956
 21
96.709581
 31
0.0
  0
ARC
  5
179
330
6F
100
AcDbEntity
  8
CSLAYER1
  6
Continuous
 62
     7
100
AcDbCircle
 10
97.003956
 20
95.709581
 30
0.0
 40
1.0
100
AcDbArc
 50
0.0
 51
90.0
  0
LINE
  5
17A
330
6F
100
AcDbEntity
  8
CSLAYER1
  6
Continuous
 62
     7
100
AcDbLine
 10
98.00395600000001
 20
95.709581
 30
0.0
 11
98.00395600000001
 21
94.709581
 31
0.0
  0
ARC
  5
17B
330
6F
100
AcDbEntity
  8
CSLAYER1
  6
Continuous
 62
     7
100
AcDbCircle
 10
96.50395600000001
 20
94.709581
 30
0.0
 40
1.5
100
AcDbArc
 50
311.810315
 51
0.0
  0
ARC
  5
17C
330
6F
100
AcDbEntity
  8
CSLAYER1
  6
Continuous
 62
     7
100
AcDbCircle
 10
98.503956
 20
92.473513
 30
0.0
 40
1.5
100
AcDbArc
 50
131.810315
 51
180.0
  0
LINE
  5
17D
330
6F
100
AcDbEntity
  8
CSLAYER1
  6
Continuous
 62
     7
100
AcDbLine
 10
97.003956
 20
92.473513
 30
0.0
 11
97.003956
 21
86.95054799999999
 31
0.0
  0
ARC
  5
17E
330
6F
100
AcDbEntity
  8
CSLAYER1
  6
Continuous
 62
     7
100
AcDbCircle
 10
94.00395600000001
 20
86.95054799999999
 30
0.0
 40
3.0
100
AcDbArc
 50
299.744881
 51
0.0
  0
LINE
  5
17F
330
6F
100
AcDbEntity
  8
CSLAYER1
  6
Continuous
 62
     7
100
AcDbLine
 10
95.49237299999999
 20
84.34581899999999
 30
0.0
 11
95.01554
 21
84.073343
 31
0.0
  0
ARC
  5
180
330
6F
100
AcDbEntity
  8
CSLAYER1
  6
Continuous
 62
     7
100
AcDbCircle
 10
96.50395600000001
 20
81.46861300000001
 30
0.0
 40
3.0
100
AcDbArc
 50
119.744881
 51
180.0
  0
LINE
  5
181
330
6F
100
AcDbEntity
  8
CSLAYER1
  6
Continuous
 62
     7
100
AcDbLine
 10
93.503956
 20
81.46861300000001
 30
0.0
 11
93.503956
 21
77.959581
 31
0.0
  0
ARC
  5
182
330
6F
100
AcDbEntity
  8
CSLAYER1
  6
Continuous
 62
     7
100
AcDbCircle
 10
95.003956
 20
77.959581
 30
0.0
 40
1.5
100
AcDbArc
 50
180.0
 51
270.0
  0
LINE
  5
183
330
6F
100
AcDbEntity
  8
CSLAYER1
  6
Continuous
 62
     7
100
AcDbLine
 10
95.003956
 20
76.459581
 30
0.0
 11
95.25395600000001
 21
76.459581
 31
0.0
  0
LINE
  5
184
330
6F
100
AcDbEntity
  8
CSLAYER1
  6
Continuous
 62
     7
100
AcDbLine
 10
95.25395600000001
 20
76.459581
 30
0.0
 11
95.25395600000001
 21
58.95958100000001
 31
0.0
  0
LINE
  5
185
330
6F
100
AcDbEntity
  8
CSLAYER1
  6
Continuous
 62
     7
100
AcDbLine
 10
95.25395600000001
 20
58.95958100000001
 30
0.0
 11
94.753956
 21
58.95958100000001
 31
0.0
  0
ARC
  5
186
330
6F
100
AcDbEntity
  8
CSLAYER1
  6
Continuous
 62
     7
100
AcDbCircle
 10
94.753956
 20
57.45958100000001
 30
0.0
 40
1.5
100
AcDbArc
 50
90.0
 51
180.0
  0
LINE
  5
187
330
6F
100
AcDbEntity
  8
CSLAYER1
  6
Continuous
 62
     7
100
AcDbLine
 10
93.253956
 20
57.45958100000001
 30
0.0
 11
93.253956
 21
56.114318
 31
0.0
  0
ARC
  5
188
330
6F
100
AcDbEntity
  8
CSLAYER1
  6
Continuous
 62
     7
100
AcDbCircle
 10
94.753956
 20
56.114318
 30
0.0
 40
1.5
100
AcDbArc
 50
180.0
 51
255.522488
  0
ARC
  5
189
330
6F
100
AcDbEntity
  8
CSLAYER1
  6
Continuous
 62
     7
100
AcDbCircle
 10
94.00395600000001
 20
53.20958100000001
 30
0.0
 40
1.5
100
AcDbArc
 50
69.040245
 51
75.522488
  0
LINE
  5
18A
330
6F
100
AcDbEntity
  8
CSLAYER1
  6
Continuous
 62
     7
100
AcDbLine
 10
94.54052500000001
 20
54.61032900000001
 30
0.0
 11
93.449865
 21
35.709581
 31
0.0
  0
LINE
  5
18B
330
6F
100
AcDbEntity
  8
CSLAYER1
  6
Continuous
 62
     7
100
AcDbLine
 10
75.837389
 20
33.709581
 30
0.0
 11
74.558047
 21
35.709581
 31
0.0
  0
LINE
  5
18C
330
6F
100
AcDbEntity
  8
CSLAYER1
  6
Continuous
 62
     7
100
AcDbLine
 10
74.003956
 20
54.709581
 30
0.0
 11
94.00395600000001
 21
54.709581
 31
0.0
  0
LINE
  5
18D
330
6F
100
AcDbEntity
  8
CSLAYER1
  6
Continuous
 62
     7
100
AcDbLine
 10
95.23591299999999
 20
58.941538
 30
0.0
 11
96.003956
 21
59.709581
 31
0.0
  0
LINE
  5
18E
330
6F
100
AcDbEntity
  8
CSLAYER1
  6
Continuous
 62
     7
100
AcDbLine
 10
96.003956
 20
59.709581
 30
0.0
 11
98.80395599999999
 21
59.709581
 31
0.0
  0
LINE
  5
18F
330
6F
100
AcDbEntity
  8
CSLAYER1
  6
Continuous
 62
     7
100
AcDbLine
 10
98.80395599999999
 20
58.70958100000001
 30
0.0
 11
98.80395599999999
 21
76.709581
 31
0.0
  0
LINE
  5
190
330
6F
100
AcDbEntity
  8
CSLAYER1
  6
Continuous
 62
     7
100
AcDbLine
 10
98.80395599999999
 20
76.709581
 30
0.0
 11
99.303956
 21
76.84355500000001
 31
0.0
  0
LINE
  5
191
330
6F
100
AcDbEntity
  8
CSLAYER1
  6
Continuous
 62
     7
100
AcDbLine
 10
99.303956
 20
58.57560600000001
 30
0.0
 11
98.80395599999999
 21
58.70958100000001
 31
0.0
  0
LINE
  5
192
330
6F
100
AcDbEntity
  8
CSLAYER1
  6
Continuous
 62
     7
100
AcDbLine
 10
97.503956
 20
59.709581
 30
0.0
 11
97.503956
 21
75.709581
 31
0.0
  0
LINE
  5
193
330
6F
100
AcDbEntity
  8
CSLAYER1
  6
Continuous
 62
     7
100
AcDbLine
 10
98.80395599999999
 20
75.709581
 30
0.0
 11
96.003956
 21
75.709581
 31
0.0
  0
LINE
  5
194
330
6F
100
AcDbEntity
  8
CSLAYER1
  6
Continuous
 62
     7
100
AcDbLine
 10
96.003956
 20
75.709581
 30
0.0
 11
95.23591299999999
 21
76.47762400000001
 31
0.0
  0
LINE
  5
195
330
6F
100
AcDbEntity
  8
CSLAYER1
  6
Continuous
 62
     7
100
AcDbLine
 10
96.003956
 20
75.709581
 30
0.0
 11
96.003956
 21
59.709581
 31
0.0
  0
LINE
  5
196
330
6F
100
AcDbEntity
  8
CSLAYER1
  6
Continuous
 62
     7
100
AcDbLine
 10
90.50395599999999
 20
63.20958100000001
 30
0.0
 11
90.50395599999999
 21
67.209581
 31
0.0
  0
ARC
  5
197
330
6F
100
AcDbEntity
  8
CSLAYER1
  6
Continuous
 62
     7
100
AcDbCircle
 10
89.503956
 20
67.209581
 30
0.0
 40
1.0
100
AcDbArc
 50
0.0
 51
90.0
  0
LINE
  5
198
330
6F
100
AcDbEntity
  8
CSLAYER1
  6
Continuous
 62
     7
100
AcDbLine
 10
89.503956
 20
68.209581
 30
0.0
 11
76.503956
 21
68.209581
 31
0.0
  0
ARC
  5
199
330
6F
100
AcDbEntity
  8
CSLAYER1
  6
Continuous
 62
     7
100
AcDbCircle
 10
76.503956
 20
67.209581
 30
0.0
 40
1.0
100
AcDbArc
 50
90.0
 51
180.0
  0
LINE
  5
19A
330
6F
100
AcDbEntity
  8
CSLAYER1
  6
Continuous
 62
     7
100
AcDbLine
 10
75.503956
 20
67.209581
 30
0.0
 11
75.503956
 21
63.20958100000001
 31
0.0
  0
ARC
  5
19B
330
6F
100
AcDbEntity
  8
CSLAYER1
  6
Continuous
 62
     7
100
AcDbCircle
 10
76.503956
 20
63.20958100000001
 30
0.0
 40
1.0
100
AcDbArc
 50
180.0
 51
270.0
  0
LINE
  5
19C
330
6F
100
AcDbEntity
  8
CSLAYER1
  6
Continuous
 62
     7
100
AcDbLine
 10
76.503956
 20
62.209581
 30
0.0
 11
89.503956
 21
62.209581
 31
0.0
  0
ARC
  5
19D
330
6F
100
AcDbEntity
  8
CSLAYER1
  6
Continuous
 62
     7
100
AcDbCircle
 10
89.503956
 20
63.20958100000001
 30
0.0
 40
1.0
100
AcDbArc
 50
270.0
 51
0.0
  0
LINE
  5
19E
330
6F
100
AcDbEntity
  8
CSLAYER1
  6
Continuous
 62
     7
100
AcDbLine
 10
70.003956
 20
61.709581
 30
0.0
 11
70.003956
 21
86.709581
 31
0.0
  0
LINE
  5
19F
330
6F
100
AcDbEntity
  8
CSLAYER1
  6
Continuous
 62
     7
100
AcDbLine
 10
73.502803
 20
85.20958099999999
 30
0.0
 11
94.58520699999999
 21
85.20958099999999
 31
0.0
  0
LINE
  5
1A0
330
6F
100
AcDbEntity
  8
CSLAYER1
  6
Continuous
 62
     7
100
AcDbLine
 10
92.13376399999999
 20
83.209581
 30
0.0
 11
75.954245
 21
83.209581
 31
0.0
  0
LINE
  5
1A1
330
6F
100
AcDbEntity
  8
CSLAYER1
  6
Continuous
 62
     7
100
AcDbLine
 10
71.503956
 20
93.209581
 30
0.0
 11
96.50395600000001
 21
93.209581
 31
0.0
  0
LINE
  5
1A2
330
6F
100
AcDbEntity
  8
CSLAYER1
  6
Continuous
 62
     7
100
AcDbLine
 10
93.465956
 20
96.709581
 30
0.0
 11
93.465956
 21
97.70958100000001
 31
0.0
  0
ARC
  5
1A3
330
6F
100
AcDbEntity
  8
CSLAYER1
  6
Continuous
 62
     7
100
AcDbCircle
 10
93.96595600000001
 20
97.70958100000001
 30
0.0
 40
0.5
100
AcDbArc
 50
90.0
 51
180.0
  0
LINE
  5
1A4
330
6F
100
AcDbEntity
  8
CSLAYER1
  6
Continuous
 62
     7
100
AcDbLine
 10
96.10395600000002
 20
98.209581
 30
0.0
 11
71.90395600000001
 21
98.209581
 31
0.0
  0
LINE
  5
1A5
330
6F
100
AcDbEntity
  8
CSLAYER1
  6
Continuous
 62
     7
100
AcDbLine
 10
71.90395600000001
 20
98.209581
 30
0.0
 11
71.90395600000001
 21
99.709581
 31
0.0
  0
LINE
  5
1A6
330
6F
100
AcDbEntity
  8
CSLAYER1
  6
Continuous
 62
     7
100
AcDbLine
 10
71.90395600000001
 20
99.709581
 30
0.0
 11
72.769982
 21
100.209581
 31
0.0
  0
LINE
  5
1A7
330
6F
100
AcDbEntity
  8
CSLAYER1
  6
Continuous
 62
     7
100
AcDbLine
 10
72.769982
 20
100.209581
 30
0.0
 11
71.90395600000001
 21
100.709581
 31
0.0
  0
LINE
  5
1A8
330
6F
100
AcDbEntity
  8
CSLAYER1
  6
Continuous
 62
     7
100
AcDbLine
 10
71.90395600000001
 20
100.709581
 30
0.0
 11
71.90395600000001
 21
101.78582
 31
0.0
  0
LINE
  5
1A9
330
6F
100
AcDbEntity
  8
CSLAYER1
  6
Continuous
 62
     7
100
AcDbLine
 10
71.90395600000001
 20
101.78582
 30
0.0
 11
73.503956
 21
102.709581
 31
0.0
  0
LINE
  5
1AA
330
6F
100
AcDbEntity
  8
CSLAYER1
  6
Continuous
 62
     7
100
AcDbLine
 10
73.503956
 20
102.709581
 30
0.0
 11
94.503956
 21
102.709581
 31
0.0
  0
LINE
  5
1AB
330
6F
100
AcDbEntity
  8
CSLAYER1
  6
Continuous
 62
     7
100
AcDbLine
 10
94.503956
 20
102.709581
 30
0.0
 11
96.10395600000002
 21
101.78582
 31
0.0
  0
LINE
  5
1AC
330
6F
100
AcDbEntity
  8
CSLAYER1
  6
Continuous
 62
     7
100
AcDbLine
 10
96.10395600000002
 20
101.78582
 30
0.0
 11
96.10395600000002
 21
100.709581
 31
0.0
  0
LINE
  5
1AD
330
6F
100
AcDbEntity
  8
CSLAYER1
  6
Continuous
 62
     7
100
AcDbLine
 10
96.10395600000002
 20
100.709581
 30
0.0
 11
95.237931
 21
100.209581
 31
0.0
  0
LINE
  5
1AE
330
6F
100
AcDbEntity
  8
CSLAYER1
  6
Continuous
 62
     7
100
AcDbLine
 10
95.237931
 20
100.209581
 30
0.0
 11
96.10395600000002
 21
99.709581
 31
0.0
  0
LINE
  5
1AF
330
6F
100
AcDbEntity
  8
CSLAYER1
  6
Continuous
 62
     7
100
AcDbLine
 10
96.10395600000002
 20
99.709581
 30
0.0
 11
96.10395600000002
 21
98.209581
 31
0.0
  0
LINE
  5
1B0
330
6F
100
AcDbEntity
  8
CSLAYER1
  6
Continuous
 62
     7
100
AcDbLine
 10
91.100214
 20
100.209581
 30
0.0
 11
87.997975
 21
100.209581
 31
0.0
  0
LINE
  5
1B1
330
6F
100
AcDbEntity
  8
CSLAYER1
  6
Continuous
 62
     7
100
AcDbLine
 10
87.997975
 20
100.209581
 30
0.0
 11
90.05395599999999
 21
100.709581
 31
0.0
  0
LINE
  5
1B2
330
6F
100
AcDbEntity
  8
CSLAYER1
  6
Continuous
 62
     7
100
AcDbLine
 10
90.05395599999999
 20
100.709581
 30
0.0
 11
91.100214
 21
100.209581
 31
0.0
  0
LINE
  5
1B3
330
6F
100
AcDbEntity
  8
CSLAYER1
  6
Continuous
 62
     7
100
AcDbLine
 10
91.100214
 20
100.209581
 30
0.0
 11
90.05395599999999
 21
99.709581
 31
0.0
  0
LINE
  5
1B4
330
6F
100
AcDbEntity
  8
CSLAYER1
  6
Continuous
 62
     7
100
AcDbLine
 10
90.05395599999999
 20
99.709581
 30
0.0
 11
87.997975
 21
100.209581
 31
0.0
  0
LINE
  5
1B5
330
6F
100
AcDbEntity
  8
CSLAYER1
  6
Continuous
 62
     7
100
AcDbLine
 10
90.06613399999999
 20
99.715401
 30
0.0
 11
90.06613399999999
 21
98.209581
 31
0.0
  0
LINE
  5
1B6
330
6F
100
AcDbEntity
  8
CSLAYER1
  6
Continuous
 62
     7
100
AcDbLine
 10
90.06613399999999
 20
100.709581
 30
0.0
 11
90.06613399999999
 21
101.78582
 31
0.0
  0
ARC
  5
1B7
330
6F
100
AcDbEntity
  8
CSLAYER1
  6
Continuous
 62
     7
100
AcDbCircle
 10
84.00395600000001
 20
82.35618
 30
0.0
 40
20.353401
100
AcDbArc
 50
72.671729
 51
107.328271
  0
LINE
  5
1B8
330
6F
100
AcDbEntity
  8
CSLAYER1
  6
Continuous
 62
     7
100
AcDbLine
 10
77.941779
 20
101.78582
 30
0.0
 11
77.941779
 21
100.709581
 31
0.0
  0
LINE
  5
1B9
330
6F
100
AcDbEntity
  8
CSLAYER1
  6
Continuous
 62
     7
100
AcDbLine
 10
77.953956
 20
100.709581
 30
0.0
 11
76.90769899999999
 21
100.209581
 31
0.0
  0
LINE
  5
1BA
330
6F
100
AcDbEntity
  8
CSLAYER1
  6
Continuous
 62
     7
100
AcDbLine
 10
76.90769899999999
 20
100.209581
 30
0.0
 11
80.00993800000001
 21
100.209581
 31
0.0
  0
LINE
  5
1BB
330
6F
100
AcDbEntity
  8
CSLAYER1
  6
Continuous
 62
     7
100
AcDbLine
 10
80.00993800000001
 20
100.209581
 30
0.0
 11
77.953956
 21
100.709581
 31
0.0
  0
LINE
  5
1BC
330
6F
100
AcDbEntity
  8
CSLAYER1
  6
Continuous
 62
     7
100
AcDbLine
 10
77.941779
 20
99.715401
 30
0.0
 11
77.941779
 21
98.209581
 31
0.0
  0
LINE
  5
1BD
330
6F
100
AcDbEntity
  8
CSLAYER1
  6
Continuous
 62
     7
100
AcDbLine
 10
77.953956
 20
99.709581
 30
0.0
 11
76.90769899999999
 21
100.209581
 31
0.0
  0
LINE
  5
1BE
330
6F
100
AcDbEntity
  8
CSLAYER1
  6
Continuous
 62
     7
100
AcDbLine
 10
77.953956
 20
99.709581
 30
0.0
 11
80.00993800000001
 21
100.209581
 31
0.0
  0
ARC
  5
1BF
330
6F
100
AcDbEntity
  8
CSLAYER1
  6
Continuous
 62
     7
100
AcDbCircle
 10
74.92286700000001
 20
97.314699
 30
0.0
 40
5.394881999999999
100
AcDbArc
 50
55.972694
 51
90.0
  0
LINE
  5
1C0
330
6F
100
AcDbEntity
  8
CSLAYER1
  6
Continuous
 62
     7
100
AcDbLine
 10
76.371656
 20
105.209581
 30
0.0
 11
91.636257
 21
105.209581
 31
0.0
  0
ARC
  5
1C1
330
6F
100
AcDbEntity
  8
CSLAYER1
  6
Continuous
 62
     7
100
AcDbCircle
 10
91.636257
 20
106.209581
 30
0.0
 40
1.0
100
AcDbArc
 50
270.0
 51
351.896302
  0
LINE
  5
1C2
330
6F
100
AcDbEntity
  8
CSLAYER1
  6
Continuous
 62
     7
100
AcDbLine
 10
92.626272
 20
106.068616
 30
0.0
 11
92.85830999999999
 21
107.698245
 31
0.0
  0
ARC
  5
1C3
330
6F
100
AcDbEntity
  8
CSLAYER1
  6
Continuous
 62
     7
100
AcDbCircle
 10
93.08504499999999
 20
97.314699
 30
0.0
 40
5.394881999999999
100
AcDbArc
 50
90.0
 51
124.027306
  0
LINE
  5
1C4
330
6F
100
AcDbEntity
  8
CSLAYER1
  6
Continuous
 62
     7
100
AcDbLine
 10
88.894307
 20
102.709581
 30
0.0
 11
88.31695600000001
 21
103.709581
 31
0.0
  0
LINE
  5
1C5
330
6F
100
AcDbEntity
  8
CSLAYER1
  6
Continuous
 62
     7
100
AcDbLine
 10
88.31695600000001
 20
103.709581
 30
0.0
 11
79.690956
 21
103.709581
 31
0.0
  0
LINE
  5
1C6
330
6F
100
AcDbEntity
  8
CSLAYER1
  6
Continuous
 62
     7
100
AcDbLine
 10
79.690956
 20
103.709581
 30
0.0
 11
79.113606
 21
102.709581
 31
0.0
  0
LINE
  5
1C7
330
6F
100
AcDbEntity
  8
CSLAYER1
  6
Continuous
 62
     7
100
AcDbLine
 10
80.003956
 20
103.709581
 30
0.0
 11
80.003956
 21
105.209581
 31
0.0
  0
LINE
  5
1C8
330
6F
100
AcDbEntity
  8
CSLAYER1
  6
Continuous
 62
     7
100
AcDbLine
 10
81.43612299999999
 20
105.209581
 30
0.0
 11
81.44575899999999
 21
104.709581
 31
0.0
  0
LINE
  5
1C9
330
6F
100
AcDbEntity
  8
CSLAYER1
  6
Continuous
 62
     7
100
AcDbLine
 10
81.44575899999999
 20
104.709581
 30
0.0
 11
86.562154
 21
104.709581
 31
0.0
  0
LINE
  5
1CA
330
6F
100
AcDbEntity
  8
CSLAYER1
  6
Continuous
 62
     7
100
AcDbLine
 10
86.562154
 20
104.709581
 30
0.0
 11
86.57179000000001
 21
105.209581
 31
0.0
  0
LINE
  5
1CB
330
6F
100
AcDbEntity
  8
CSLAYER1
  6
Continuous
 62
     7
100
AcDbLine
 10
88.00395599999999
 20
105.209581
 30
0.0
 11
88.00395599999999
 21
103.709581
 31
0.0
  0
ARC
  5
1CC
330
6F
100
AcDbEntity
  8
CSLAYER1
  6
Continuous
 62
     7
100
AcDbCircle
 10
93.654503
 20
79.74225799999999
 30
0.0
 40
27.967323
100
AcDbArc
 50
74.901256
 51
105.098744
  0
ARC
  5
1CD
330
6F
100
AcDbEntity
  8
CSLAYER1
  6
Continuous
 62
     7
100
AcDbCircle
 10
101.200008
 20
107.709581
 30
0.0
 40
1.0
100
AcDbArc
 50
186.009006
 51
270.0
  0
LINE
  5
1CE
330
6F
100
AcDbEntity
  8
CSLAYER1
  6
Continuous
 62
     7
100
AcDbLine
 10
100.205502
 20
107.604896
 30
0.0
 11
99.60017200000001
 21
113.355538
 31
0.0
  0
ARC
  5
1CF
330
6F
100
AcDbEntity
  8
CSLAYER1
  6
Continuous
 62
     7
100
AcDbCircle
 10
101.755562
 20
113.852071
 30
0.0
 40
2.195527
100
AcDbArc
 50
51.43794899999999
 51
186.009006
  0
ARC
  5
1D0
330
6F
100
AcDbEntity
  8
CSLAYER1
  6
Continuous
 62
     7
100
AcDbCircle
 10
100.00736
 20
111.659159
 30
0.0
 40
5.0
100
AcDbArc
 50
6.009005999999999
 51
51.43794899999999
  0
LINE
  5
1D1
330
6F
100
AcDbEntity
  8
CSLAYER1
  6
Continuous
 62
     7
100
AcDbLine
 10
104.979888
 20
112.182583
 30
0.0
 11
105.415361
 21
108.045584
 31
0.0
  0
ARC
  5
1D2
330
6F
100
AcDbEntity
  8
CSLAYER1
  6
Continuous
 62
     7
100
AcDbCircle
 10
104.172229
 20
107.914728
 30
0.0
 40
1.25
100
AcDbArc
 50
285.395096
 51
6.009005999999999
  0
LINE
  5
1D3
330
6F
100
AcDbEntity
  8
CSLAYER1
  6
Continuous
 62
     7
100
AcDbLine
 10
104.504071
 20
106.709581
 30
0.0
 11
101.200008
 21
106.709581
 31
0.0
  0
ARC
  5
1D4
330
6F
100
AcDbEntity
  8
CSLAYER1
  6
Continuous
 62
     7
100
AcDbCircle
 10
105.843063
 20
107.394329
 30
0.0
 40
0.5
100
AcDbArc
 50
75.40125299999999
 51
162.70023
  0
LINE
  5
1D5
330
6F
100
AcDbEntity
  8
CSLAYER1
  6
Continuous
 62
     7
100
AcDbLine
 10
105.969087
 20
107.878187
 30
0.0
 11
110.283629
 21
106.754433
 31
0.0
  0
ARC
  5
1D6
330
6F
100
AcDbEntity
  8
CSLAYER1
  6
Continuous
 62
     7
100
AcDbCircle
 10
110.615471
 20
107.959581
 30
0.0
 40
1.25
100
AcDbArc
 50
254.604904
 51
6.009005999999999
  0
LINE
  5
1D7
330
6F
100
AcDbEntity
  8
CSLAYER1
  6
Continuous
 62
     7
100
AcDbLine
 10
111.858603
 20
108.090437
 30
0.0
 11
111.42313
 21
112.227436
 31
0.0
  0
ARC
  5
1D8
330
6F
100
AcDbEntity
  8
CSLAYER1
  6
Continuous
 62
     7
100
AcDbCircle
 10
106.450602
 20
111.704012
 30
0.0
 40
5.0
100
AcDbArc
 50
6.009005999999999
 51
83.38654
  0
LINE
  5
1D9
330
6F
100
AcDbEntity
  8
CSLAYER1
  6
Continuous
 62
     7
100
AcDbLine
 10
107.026455
 20
116.67074
 30
0.0
 11
94.78223599999999
 21
118.09036
 31
0.0
  0
LINE
  5
1DA
330
6F
100
AcDbEntity
  8
CSLAYER1
  6
Continuous
 62
     7
100
AcDbLine
 10
94.77221400000001
 20
118.098176
 30
0.0
 11
73.23569899999999
 21
118.098176
 31
0.0
  0
LINE
  5
1DB
330
6F
100
AcDbEntity
  8
CSLAYER1
  6
Continuous
 62
     7
100
AcDbLine
 10
73.225677
 20
118.09036
 30
0.0
 11
60.981458
 21
116.67074
 31
0.0
  0
ARC
  5
1DC
330
6F
100
AcDbEntity
  8
CSLAYER1
  6
Continuous
 62
     7
100
AcDbCircle
 10
61.55731
 20
111.704012
 30
0.0
 40
5.0
100
AcDbArc
 50
96.61346000000001
 51
173.990994
  0
LINE
  5
1DD
330
6F
100
AcDbEntity
  8
CSLAYER1
  6
Continuous
 62
     7
100
AcDbLine
 10
56.58478299999999
 20
112.227436
 30
0.0
 11
56.14931
 21
108.090437
 31
0.0
  0
ARC
  5
1DE
330
6F
100
AcDbEntity
  8
CSLAYER1
  6
Continuous
 62
     7
100
AcDbCircle
 10
57.392441
 20
107.959581
 30
0.0
 40
1.25
100
AcDbArc
 50
173.990994
 51
285.395096
  0
LINE
  5
1DF
330
6F
100
AcDbEntity
  8
CSLAYER1
  6
Continuous
 62
     7
100
AcDbLine
 10
57.72428299999999
 20
106.754433
 30
0.0
 11
62.038826
 21
107.878187
 31
0.0
  0
ARC
  5
1E0
330
6F
100
AcDbEntity
  8
CSLAYER1
  6
Continuous
 62
     7
100
AcDbCircle
 10
62.16485
 20
107.394329
 30
0.0
 40
0.5
100
AcDbArc
 50
17.29977
 51
104.598747
  0
ARC
  5
1E1
330
6F
100
AcDbEntity
  8
CSLAYER1
  6
Continuous
 62
     7
100
AcDbCircle
 10
63.835683
 20
107.914728
 30
0.0
 40
1.25
100
AcDbArc
 50
173.990994
 51
254.604904
  0
LINE
  5
1E2
330
6F
100
AcDbEntity
  8
CSLAYER1
  6
Continuous
 62
     7
100
AcDbLine
 10
63.503841
 20
106.709581
 30
0.0
 11
66.807905
 21
106.709581
 31
0.0
  0
ARC
  5
1E3
330
6F
100
AcDbEntity
  8
CSLAYER1
  6
Continuous
 62
     7
100
AcDbCircle
 10
66.807905
 20
107.709581
 30
0.0
 40
1.0
100
AcDbArc
 50
270.0
 51
353.990994
  0
LINE
  5
1E4
330
6F
100
AcDbEntity
  8
CSLAYER1
  6
Continuous
 62
     7
100
AcDbLine
 10
67.80241
 20
107.604896
 30
0.0
 11
68.407741
 21
113.355538
 31
0.0
  0
ARC
  5
1E5
330
6F
100
AcDbEntity
  8
CSLAYER1
  6
Continuous
 62
     7
100
AcDbCircle
 10
66.25235100000001
 20
113.852071
 30
0.0
 40
2.195527
100
AcDbArc
 50
353.990994
 51
128.562051
  0
ARC
  5
1E6
330
6F
100
AcDbEntity
  8
CSLAYER1
  6
Continuous
 62
     7
100
AcDbCircle
 10
68.000552
 20
111.659159
 30
0.0
 40
5.0
100
AcDbArc
 50
128.562051
 51
173.990994
  0
LINE
  5
1E7
330
6F
100
AcDbEntity
  8
CSLAYER1
  6
Continuous
 62
     7
100
AcDbLine
 10
63.028025
 20
112.182583
 30
0.0
 11
62.592551
 21
108.045584
 31
0.0
  0
ARC
  5
1E8
330
6F
100
AcDbEntity
  8
CSLAYER1
  6
Continuous
 62
     7
100
AcDbCircle
 10
74.35341
 20
79.74225799999999
 30
0.0
 40
27.967323
100
AcDbArc
 50
74.901256
 51
105.098744
  0
LINE
  5
1E9
330
6F
100
AcDbEntity
  8
CSLAYER1
  6
Continuous
 62
     7
100
AcDbLine
 10
81.89891499999999
 20
106.709581
 30
0.0
 11
86.108998
 21
106.709581
 31
0.0
  0
ARC
  5
1EA
330
6F
100
AcDbEntity
  8
CSLAYER1
  6
Continuous
 62
     7
100
AcDbCircle
 10
86.108998
 20
107.709581
 30
0.0
 40
1.0
100
AcDbArc
 50
270.0
 51
3.0
  0
LINE
  5
1EB
330
6F
100
AcDbEntity
  8
CSLAYER1
  6
Continuous
 62
     7
100
AcDbLine
 10
87.10762700000001
 20
107.761917
 30
0.0
 11
86.74789100000001
 21
114.626102
 31
0.0
  0
ARC
  5
1EC
330
6F
100
AcDbEntity
  8
CSLAYER1
  6
Continuous
 62
     7
100
AcDbCircle
 10
85.24994599999999
 20
114.547598
 30
0.0
 40
1.5
100
AcDbArc
 50
3.0
 51
90.0
  0
LINE
  5
1ED
330
6F
100
AcDbEntity
  8
CSLAYER1
  6
Continuous
 62
     7
100
AcDbLine
 10
85.24994599999999
 20
116.047598
 30
0.0
 11
82.75796600000001
 21
116.047598
 31
0.0
  0
ARC
  5
1EE
330
6F
100
AcDbEntity
  8
CSLAYER1
  6
Continuous
 62
     7
100
AcDbCircle
 10
82.75796600000001
 20
114.547598
 30
0.0
 40
1.5
100
AcDbArc
 50
90.0
 51
177.0
  0
LINE
  5
1EF
330
6F
100
AcDbEntity
  8
CSLAYER1
  6
Continuous
 62
     7
100
AcDbLine
 10
81.260022
 20
114.626102
 30
0.0
 11
80.900285
 21
107.761917
 31
0.0
  0
ARC
  5
1F0
330
6F
100
AcDbEntity
  8
CSLAYER1
  6
Continuous
 62
     7
100
AcDbCircle
 10
81.89891499999999
 20
107.709581
 30
0.0
 40
1.0
100
AcDbArc
 50
177.0
 51
270.0
  0
ARC
  5
1F1
330
6F
100
AcDbEntity
  8
CSLAYER1
  6
Continuous
 62
     7
100
AcDbCircle
 10
76.371656
 20
106.209581
 30
0.0
 40
1.0
100
AcDbArc
 50
188.103698
 51
270.0
  0
LINE
  5
1F2
330
6F
100
AcDbEntity
  8
CSLAYER1
  6
Continuous
 62
     7
100
AcDbLine
 10
75.381641
 20
106.068616
 30
0.0
 11
75.149603
 21
107.698245
 31
0.0
  0
ARC
  5
1F3
330
6F
100
AcDbEntity
  8
CSLAYER1
  6
Continuous
 62
     7
100
AcDbCircle
 10
75.02231899999999
 20
105.095246
 30
0.0
 40
11.105468
100
AcDbArc
 50
58.52006700000001
 51
122.75312
  0
ARC
  5
1F4
330
6F
100
AcDbEntity
  8
CSLAYER1
  6
Continuous
 62
     7
100
AcDbCircle
 10
60.566235
 20
113.69861
 30
0.0
 40
2.772747999999999
100
AcDbArc
 50
354.53607
 51
116.421854
  0
ARC
  5
1F5
330
6F
100
AcDbEntity
  8
CSLAYER1
  6
Continuous
 62
     7
100
AcDbCircle
 10
74.041956
 20
97.70958100000001
 30
0.0
 40
0.5
100
AcDbArc
 50
0.0
 51
90.0
  0
LINE
  5
1F6
330
6F
100
AcDbEntity
  8
CSLAYER1
  6
Continuous
 62
     7
100
AcDbLine
 10
74.541956
 20
97.70958100000001
 30
0.0
 11
74.541956
 21
96.709581
 31
0.0
  0
LINE
  5
1F7
330
6F
100
AcDbEntity
  8
CSLAYER1
  6
Continuous
 62
     7
100
AcDbLine
 10
58.003956
 20
86.709581
 30
0.0
 11
58.003956
 21
61.709581
 31
0.0
  0
ARC
  5
1F8
330
6F
100
AcDbEntity
  8
CSLAYER1
  6
Continuous
 62
     7
100
AcDbCircle
 10
92.985594
 20
105.095246
 30
0.0
 40
11.105468
100
AcDbArc
 50
57.24688000000001
 51
121.479933
  0
ARC
  5
1F9
330
6F
100
AcDbEntity
  8
CSLAYER1
  6
Continuous
 62
     7
100
AcDbCircle
 10
107.441678
 20
113.69861
 30
0.0
 40
2.772747999999999
100
AcDbArc
 50
63.578146
 51
185.46393
  0
LINE
  5
1FA
330
6F
100
AcDbEntity
  8
CSLAYER1
  6
Continuous
 62
     7
100
AcDbLine
 10
127.745497
 20
112.227436
 30
0.0
 11
127.310024
 21
108.090437
 31
0.0
  0
ARC
  5
1FB
330
6F
100
AcDbEntity
  8
CSLAYER1
  6
Continuous
 62
     7
100
AcDbCircle
 10
128.553156
 20
107.959581
 30
0.0
 40
1.25
100
AcDbArc
 50
173.990994
 51
285.395096
  0
LINE
  5
1FC
330
6F
100
AcDbEntity
  8
CSLAYER1
  6
Continuous
 62
     7
100
AcDbLine
 10
128.884998
 20
106.754433
 30
0.0
 11
133.19954
 21
107.878187
 31
0.0
  0
ARC
  5
1FD
330
6F
100
AcDbEntity
  8
CSLAYER1
  6
Continuous
 62
     7
100
AcDbCircle
 10
133.325564
 20
107.394329
 30
0.0
 40
0.5
100
AcDbArc
 50
17.29977
 51
104.598747
  0
ARC
  5
1FE
330
6F
100
AcDbEntity
  8
CSLAYER1
  6
Continuous
 62
     7
100
AcDbCircle
 10
134.996398
 20
107.914728
 30
0.0
 40
1.25
100
AcDbArc
 50
173.990994
 51
254.604904
  0
LINE
  5
1FF
330
6F
100
AcDbEntity
  8
CSLAYER1
  6
Continuous
 62
     7
100
AcDbLine
 10
134.664556
 20
106.709581
 30
0.0
 11
137.968619
 21
106.709581
 31
0.0
  0
ARC
  5
200
330
6F
100
AcDbEntity
  8
CSLAYER1
  6
Continuous
 62
     7
100
AcDbCircle
 10
137.968619
 20
107.709581
 30
0.0
 40
1.0
100
AcDbArc
 50
270.0
 51
353.990994
  0
LINE
  5
201
330
6F
100
AcDbEntity
  8
CSLAYER1
  6
Continuous
 62
     7
100
AcDbLine
 10
138.963125
 20
107.604896
 30
0.0
 11
139.568455
 21
113.355538
 31
0.0
  0
ARC
  5
202
330
6F
100
AcDbEntity
  8
CSLAYER1
  6
Continuous
 62
     7
100
AcDbCircle
 10
137.413065
 20
113.852071
 30
0.0
 40
2.195527
100
AcDbArc
 50
353.990994
 51
128.562051
  0
ARC
  5
203
330
6F
100
AcDbEntity
  8
CSLAYER1
  6
Continuous
 62
     7
100
AcDbCircle
 10
139.1612669999999
 20
111.659159
 30
0.0
 40
5.0
100
AcDbArc
 50
128.562051
 51
173.990994
  0
LINE
  5
204
330
6F
100
AcDbEntity
  8
CSLAYER1
  6
Continuous
 62
     7
100
AcDbLine
 10
134.188739
 20
112.182583
 30
0.0
 11
133.753266
 21
108.045584
 31
0.0
  0
ARC
  5
205
330
6F
100
AcDbEntity
  8
CSLAYER1
  6
Continuous
 62
     7
100
AcDbCircle
 10
145.514124
 20
79.74225799999999
 30
0.0
 40
27.967323
100
AcDbArc
 50
74.901256
 51
105.098744
  0
LINE
  5
206
330
6F
100
AcDbEntity
  8
CSLAYER1
  6
Continuous
 62
     7
100
AcDbLine
 10
153.059629
 20
106.709581
 30
0.0
 11
157.269712
 21
106.709581
 31
0.0
  0
ARC
  5
207
330
6F
100
AcDbEntity
  8
CSLAYER1
  6
Continuous
 62
     7
100
AcDbCircle
 10
157.269712
 20
107.709581
 30
0.0
 40
1.0
100
AcDbArc
 50
270.0
 51
3.0
  0
LINE
  5
208
330
6F
100
AcDbEntity
  8
CSLAYER1
  6
Continuous
 62
     7
100
AcDbLine
 10
158.268342
 20
107.761917
 30
0.0
 11
157.908605
 21
114.626102
 31
0.0
  0
ARC
  5
209
330
6F
100
AcDbEntity
  8
CSLAYER1
  6
Continuous
 62
     7
100
AcDbCircle
 10
156.410661
 20
114.547598
 30
0.0
 40
1.5
100
AcDbArc
 50
3.0
 51
90.0
  0
LINE
  5
20A
330
6F
100
AcDbEntity
  8
CSLAYER1
  6
Continuous
 62
     7
100
AcDbLine
 10
156.410661
 20
116.047598
 30
0.0
 11
153.918681
 21
116.047598
 31
0.0
  0
ARC
  5
20B
330
6F
100
AcDbEntity
  8
CSLAYER1
  6
Continuous
 62
     7
100
AcDbCircle
 10
153.918681
 20
114.547598
 30
0.0
 40
1.5
100
AcDbArc
 50
90.0
 51
177.0
  0
LINE
  5
20C
330
6F
100
AcDbEntity
  8
CSLAYER1
  6
Continuous
 62
     7
100
AcDbLine
 10
152.420736
 20
114.626102
 30
0.0
 11
152.061
 21
107.761917
 31
0.0
  0
ARC
  5
20D
330
6F
100
AcDbEntity
  8
CSLAYER1
  6
Continuous
 62
     7
100
AcDbCircle
 10
153.059629
 20
107.709581
 30
0.0
 40
1.0
100
AcDbArc
 50
177.0
 51
270.0
  0
LINE
  5
20E
330
6F
100
AcDbEntity
  8
CSLAYER1
  6
Continuous
 62
     7
100
AcDbLine
 10
152.596837
 20
105.209581
 30
0.0
 11
152.606473
 21
104.709581
 31
0.0
  0
LINE
  5
20F
330
6F
100
AcDbEntity
  8
CSLAYER1
  6
Continuous
 62
     7
100
AcDbLine
 10
152.606473
 20
104.709581
 30
0.0
 11
157.722868
 21
104.709581
 31
0.0
  0
LINE
  5
210
330
6F
100
AcDbEntity
  8
CSLAYER1
  6
Continuous
 62
     7
100
AcDbLine
 10
157.722868
 20
104.709581
 30
0.0
 11
157.732504
 21
105.209581
 31
0.0
  0
LINE
  5
211
330
6F
100
AcDbEntity
  8
CSLAYER1
  6
Continuous
 62
     7
100
AcDbLine
 10
159.164671
 20
105.209581
 30
0.0
 11
159.164671
 21
103.709581
 31
0.0
  0
LINE
  5
212
330
6F
100
AcDbEntity
  8
CSLAYER1
  6
Continuous
 62
     7
100
AcDbLine
 10
159.477671
 20
103.709581
 30
0.0
 11
150.851671
 21
103.709581
 31
0.0
  0
LINE
  5
213
330
6F
100
AcDbEntity
  8
CSLAYER1
  6
Continuous
 62
     7
100
AcDbLine
 10
150.851671
 20
103.709581
 30
0.0
 11
150.27432
 21
102.709581
 31
0.0
  0
LINE
  5
214
330
6F
100
AcDbEntity
  8
CSLAYER1
  6
Continuous
 62
     7
100
AcDbLine
 10
151.164671
 20
103.709581
 30
0.0
 11
151.164671
 21
105.209581
 31
0.0
  0
LINE
  5
215
330
6F
100
AcDbEntity
  8
CSLAYER1
  6
Continuous
 62
     7
100
AcDbLine
 10
147.53237
 20
105.209581
 30
0.0
 11
162.796971
 21
105.209581
 31
0.0
  0
ARC
  5
216
330
6F
100
AcDbEntity
  8
CSLAYER1
  6
Continuous
 62
     7
100
AcDbCircle
 10
162.796971
 20
106.209581
 30
0.0
 40
1.0
100
AcDbArc
 50
270.0
 51
351.896302
  0
LINE
  5
217
330
6F
100
AcDbEntity
  8
CSLAYER1
  6
Continuous
 62
     7
100
AcDbLine
 10
163.786986
 20
106.068616
 30
0.0
 11
164.019024
 21
107.698245
 31
0.0
  0
ARC
  5
218
330
6F
100
AcDbEntity
  8
CSLAYER1
  6
Continuous
 62
     7
100
AcDbCircle
 10
164.24576
 20
97.314699
 30
0.0
 40
5.394881999999999
100
AcDbArc
 50
90.0
 51
124.027306
  0
ARC
  5
219
330
6F
100
AcDbEntity
  8
CSLAYER1
  6
Continuous
 62
     7
100
AcDbCircle
 10
155.164671
 20
82.35618
 30
0.0
 40
20.353401
100
AcDbArc
 50
72.671729
 51
107.328271
  0
LINE
  5
21A
330
6F
100
AcDbEntity
  8
CSLAYER1
  6
Continuous
 62
     7
100
AcDbLine
 10
149.102493
 20
101.78582
 30
0.0
 11
149.102493
 21
100.709581
 31
0.0
  0
LINE
  5
21B
330
6F
100
AcDbEntity
  8
CSLAYER1
  6
Continuous
 62
     7
100
AcDbLine
 10
149.114671
 20
100.709581
 30
0.0
 11
151.170652
 21
100.209581
 31
0.0
  0
LINE
  5
21C
330
6F
100
AcDbEntity
  8
CSLAYER1
  6
Continuous
 62
     7
100
AcDbLine
 10
151.170652
 20
100.209581
 30
0.0
 11
149.114671
 21
99.709581
 31
0.0
  0
LINE
  5
21D
330
6F
100
AcDbEntity
  8
CSLAYER1
  6
Continuous
 62
     7
100
AcDbLine
 10
149.114671
 20
99.709581
 30
0.0
 11
148.068413
 21
100.209581
 31
0.0
  0
LINE
  5
21E
330
6F
100
AcDbEntity
  8
CSLAYER1
  6
Continuous
 62
     7
100
AcDbLine
 10
148.068413
 20
100.209581
 30
0.0
 11
151.170652
 21
100.209581
 31
0.0
  0
LINE
  5
21F
330
6F
100
AcDbEntity
  8
CSLAYER1
  6
Continuous
 62
     7
100
AcDbLine
 10
149.114671
 20
100.709581
 30
0.0
 11
148.068413
 21
100.209581
 31
0.0
  0
LINE
  5
220
330
6F
100
AcDbEntity
  8
CSLAYER1
  6
Continuous
 62
     7
100
AcDbLine
 10
149.102493
 20
99.715401
 30
0.0
 11
149.102493
 21
98.209581
 31
0.0
  0
LINE
  5
221
330
6F
100
AcDbEntity
  8
CSLAYER1
  6
Continuous
 62
     7
100
AcDbLine
 10
145.702671
 20
97.70958100000001
 30
0.0
 11
145.702671
 21
96.709581
 31
0.0
  0
ARC
  5
222
330
6F
100
AcDbEntity
  8
CSLAYER1
  6
Continuous
 62
     7
100
AcDbCircle
 10
145.202671
 20
97.70958100000001
 30
0.0
 40
0.5
100
AcDbArc
 50
0.0
 51
90.0
  0
LINE
  5
223
330
6F
100
AcDbEntity
  8
CSLAYER1
  6
Continuous
 62
     7
100
AcDbLine
 10
143.064671
 20
98.209581
 30
0.0
 11
167.264671
 21
98.209581
 31
0.0
  0
LINE
  5
224
330
6F
100
AcDbEntity
  8
CSLAYER1
  6
Continuous
 62
     7
100
AcDbLine
 10
167.264671
 20
98.209581
 30
0.0
 11
167.264671
 21
99.709581
 31
0.0
  0
LINE
  5
225
330
6F
100
AcDbEntity
  8
CSLAYER1
  6
Continuous
 62
     7
100
AcDbLine
 10
167.264671
 20
99.709581
 30
0.0
 11
166.398645
 21
100.209581
 31
0.0
  0
LINE
  5
226
330
6F
100
AcDbEntity
  8
CSLAYER1
  6
Continuous
 62
     7
100
AcDbLine
 10
166.398645
 20
100.209581
 30
0.0
 11
167.264671
 21
100.709581
 31
0.0
  0
LINE
  5
227
330
6F
100
AcDbEntity
  8
CSLAYER1
  6
Continuous
 62
     7
100
AcDbLine
 10
167.264671
 20
100.709581
 30
0.0
 11
167.264671
 21
101.78582
 31
0.0
  0
LINE
  5
228
330
6F
100
AcDbEntity
  8
CSLAYER1
  6
Continuous
 62
     7
100
AcDbLine
 10
167.264671
 20
101.78582
 30
0.0
 11
165.664671
 21
102.709581
 31
0.0
  0
LINE
  5
229
330
6F
100
AcDbEntity
  8
CSLAYER1
  6
Continuous
 62
     7
100
AcDbLine
 10
165.664671
 20
102.709581
 30
0.0
 11
144.664671
 21
102.709581
 31
0.0
  0
LINE
  5
22A
330
6F
100
AcDbEntity
  8
CSLAYER1
  6
Continuous
 62
     7
100
AcDbLine
 10
144.664671
 20
102.709581
 30
0.0
 11
143.064671
 21
101.78582
 31
0.0
  0
LINE
  5
22B
330
6F
100
AcDbEntity
  8
CSLAYER1
  6
Continuous
 62
     7
100
AcDbLine
 10
143.064671
 20
101.78582
 30
0.0
 11
143.064671
 21
100.709581
 31
0.0
  0
LINE
  5
22C
330
6F
100
AcDbEntity
  8
CSLAYER1
  6
Continuous
 62
     7
100
AcDbLine
 10
143.064671
 20
100.709581
 30
0.0
 11
143.930696
 21
100.209581
 31
0.0
  0
LINE
  5
22D
330
6F
100
AcDbEntity
  8
CSLAYER1
  6
Continuous
 62
     7
100
AcDbLine
 10
143.930696
 20
100.209581
 30
0.0
 11
143.064671
 21
99.709581
 31
0.0
  0
LINE
  5
22E
330
6F
100
AcDbEntity
  8
CSLAYER1
  6
Continuous
 62
     7
100
AcDbLine
 10
143.064671
 20
99.709581
 30
0.0
 11
143.064671
 21
98.209581
 31
0.0
  0
LINE
  5
22F
330
6F
100
AcDbEntity
  8
CSLAYER1
  6
Continuous
 62
     7
100
AcDbLine
 10
142.164671
 20
96.709581
 30
0.0
 11
168.164671
 21
96.709581
 31
0.0
  0
ARC
  5
230
330
6F
100
AcDbEntity
  8
CSLAYER1
  6
Continuous
 62
     7
100
AcDbCircle
 10
168.164671
 20
95.709581
 30
0.0
 40
1.0
100
AcDbArc
 50
0.0
 51
90.0
  0
LINE
  5
231
330
6F
100
AcDbEntity
  8
CSLAYER1
  6
Continuous
 62
     7
100
AcDbLine
 10
169.164671
 20
95.709581
 30
0.0
 11
169.164671
 21
94.709581
 31
0.0
  0
ARC
  5
232
330
6F
100
AcDbEntity
  8
CSLAYER1
  6
Continuous
 62
     7
100
AcDbCircle
 10
167.664671
 20
94.709581
 30
0.0
 40
1.5
100
AcDbArc
 50
311.810315
 51
0.0
  0
ARC
  5
233
330
6F
100
AcDbEntity
  8
CSLAYER1
  6
Continuous
 62
     7
100
AcDbCircle
 10
169.664671
 20
92.473513
 30
0.0
 40
1.5
100
AcDbArc
 50
131.810315
 51
180.0
  0
LINE
  5
234
330
6F
100
AcDbEntity
  8
CSLAYER1
  6
Continuous
 62
     7
100
AcDbLine
 10
168.164671
 20
92.473513
 30
0.0
 11
168.164671
 21
89.209581
 31
0.0
  0
ARC
  5
235
330
6F
100
AcDbEntity
  8
CSLAYER1
  6
Continuous
 62
     7
100
AcDbCircle
 10
169.664671
 20
89.209581
 30
0.0
 40
1.5
100
AcDbArc
 50
180.0
 51
270.0
  0
LINE
  5
236
330
6F
100
AcDbEntity
  8
CSLAYER1
  6
Continuous
 62
     7
100
AcDbLine
 10
169.664671
 20
87.70958099999999
 30
0.0
 11
181.006358
 21
87.70958099999999
 31
0.0
  0
ARC
  5
237
330
6F
100
AcDbEntity
  8
CSLAYER1
  6
Continuous
 62
     7
100
AcDbCircle
 10
181.006358
 20
89.209581
 30
0.0
 40
1.5
100
AcDbArc
 50
270.0
 51
303.5573100000001
  0
ARC
  5
238
330
6F
100
AcDbEntity
  8
CSLAYER1
  6
Continuous
 62
     7
100
AcDbCircle
 10
182.664671
 20
86.709581
 30
0.0
 40
1.5
100
AcDbArc
 50
90.0
 51
123.55731
  0
LINE
  5
239
330
6F
100
AcDbEntity
  8
CSLAYER1
  6
Continuous
 62
     7
100
AcDbLine
 10
182.664671
 20
88.209581
 30
0.0
 11
186.164671
 21
88.209581
 31
0.0
  0
ARC
  5
23A
330
6F
100
AcDbEntity
  8
CSLAYER1
  6
Continuous
 62
     7
100
AcDbCircle
 10
186.164671
 20
87.209581
 30
0.0
 40
1.0
100
AcDbArc
 50
0.0
 51
90.0
  0
LINE
  5
23B
330
6F
100
AcDbEntity
  8
CSLAYER1
  6
Continuous
 62
     7
100
AcDbLine
 10
187.164671
 20
87.209581
 30
0.0
 11
187.164671
 21
61.20958100000001
 31
0.0
  0
ARC
  5
23C
330
6F
100
AcDbEntity
  8
CSLAYER1
  6
Continuous
 62
     7
100
AcDbCircle
 10
186.164671
 20
61.20958100000001
 30
0.0
 40
1.0
100
AcDbArc
 50
270.0
 51
0.0
  0
LINE
  5
23D
330
6F
100
AcDbEntity
  8
CSLAYER1
  6
Continuous
 62
     7
100
AcDbLine
 10
186.164671
 20
60.20958100000001
 30
0.0
 11
182.664671
 21
60.20958100000001
 31
0.0
  0
ARC
  5
23E
330
6F
100
AcDbEntity
  8
CSLAYER1
  6
Continuous
 62
     7
100
AcDbCircle
 10
182.664671
 20
61.709581
 30
0.0
 40
1.5
100
AcDbArc
 50
236.44269
 51
270.0
  0
ARC
  5
23F
330
6F
100
AcDbEntity
  8
CSLAYER1
  6
Continuous
 62
     7
100
AcDbCircle
 10
181.006358
 20
59.209581
 30
0.0
 40
1.5
100
AcDbArc
 50
56.44269000000001
 51
90.0
  0
LINE
  5
240
330
6F
100
AcDbEntity
  8
CSLAYER1
  6
Continuous
 62
     7
100
AcDbLine
 10
181.006358
 20
60.70958100000001
 30
0.0
 11
167.493098
 21
60.70958100000001
 31
0.0
  0
ARC
  5
241
330
6F
100
AcDbEntity
  8
CSLAYER1
  6
Continuous
 62
     7
100
AcDbCircle
 10
167.493098
 20
59.209581
 30
0.0
 40
1.5
100
AcDbArc
 50
90.0
 51
160.528779
  0
LINE
  5
242
330
6F
100
AcDbEntity
  8
CSLAYER1
  6
Continuous
 62
     7
100
AcDbLine
 10
166.164671
 20
60.20958100000001
 30
0.0
 11
166.164671
 21
70.209581
 31
0.0
  0
ARC
  5
243
330
6F
100
AcDbEntity
  8
CSLAYER1
  6
Continuous
 62
     7
100
AcDbCircle
 10
164.664671
 20
70.209581
 30
0.0
 40
1.5
100
AcDbArc
 50
0.0
 51
90.0
  0
LINE
  5
244
330
6F
100
AcDbEntity
  8
CSLAYER1
  6
Continuous
 62
     7
100
AcDbLine
 10
164.664671
 20
71.709581
 30
0.0
 11
147.664671
 21
71.709581
 31
0.0
  0
ARC
  5
245
330
6F
100
AcDbEntity
  8
CSLAYER1
  6
Continuous
 62
     7
100
AcDbCircle
 10
147.664671
 20
70.209581
 30
0.0
 40
1.5
100
AcDbArc
 50
90.0
 51
180.0
  0
LINE
  5
246
330
6F
100
AcDbEntity
  8
CSLAYER1
  6
Continuous
 62
     7
100
AcDbLine
 10
146.164671
 20
70.209581
 30
0.0
 11
146.164671
 21
60.20958100000001
 31
0.0
  0
ARC
  5
247
330
6F
100
AcDbEntity
  8
CSLAYER1
  6
Continuous
 62
     7
100
AcDbCircle
 10
147.664671
 20
60.20958100000001
 30
0.0
 40
1.5
100
AcDbArc
 50
180.0
 51
270.0
  0
LINE
  5
248
330
6F
100
AcDbEntity
  8
CSLAYER1
  6
Continuous
 62
     7
100
AcDbLine
 10
147.664671
 20
58.70958100000001
 30
0.0
 11
164.664671
 21
58.70958100000001
 31
0.0
  0
ARC
  5
249
330
6F
100
AcDbEntity
  8
CSLAYER1
  6
Continuous
 62
     7
100
AcDbCircle
 10
164.664671
 20
60.20958100000001
 30
0.0
 40
1.5
100
AcDbArc
 50
270.0
 51
0.0
  0
ARC
  5
24A
330
6F
100
AcDbEntity
  8
CSLAYER1
  6
Continuous
 62
     7
100
AcDbCircle
 10
165.914671
 20
57.482403
 30
0.0
 40
1.5
100
AcDbArc
 50
114.624318
 51
180.0
  0
LINE
  5
24B
330
6F
100
AcDbEntity
  8
CSLAYER1
  6
Continuous
 62
     7
100
AcDbLine
 10
164.414671
 20
57.482403
 30
0.0
 11
164.414671
 21
56.114318
 31
0.0
  0
ARC
  5
24C
330
6F
100
AcDbEntity
  8
CSLAYER1
  6
Continuous
 62
     7
100
AcDbCircle
 10
165.914671
 20
56.114318
 30
0.0
 40
1.5
100
AcDbArc
 50
180.0
 51
255.522488
  0
ARC
  5
24D
330
6F
100
AcDbEntity
  8
CSLAYER1
  6
Continuous
 62
     7
100
AcDbCircle
 10
165.164671
 20
53.20958100000001
 30
0.0
 40
1.5
100
AcDbArc
 50
69.040245
 51
75.522488
  0
LINE
  5
24E
330
6F
100
AcDbEntity
  8
CSLAYER1
  6
Continuous
 62
     7
100
AcDbLine
 10
165.701239
 20
54.61032900000001
 30
0.0
 11
164.61058
 21
35.709581
 31
0.0
  0
LINE
  5
24F
330
6F
100
AcDbEntity
  8
CSLAYER1
  6
Continuous
 62
     7
100
AcDbLine
 10
164.61058
 20
35.709581
 30
0.0
 11
145.718762
 21
35.709581
 31
0.0
  0
LINE
  5
250
330
6F
100
AcDbEntity
  8
CSLAYER1
  6
Continuous
 62
     7
100
AcDbLine
 10
145.718762
 20
35.709581
 30
0.0
 11
146.998104
 21
33.709581
 31
0.0
  0
LINE
  5
251
330
6F
100
AcDbEntity
  8
CSLAYER1
  6
Continuous
 62
     7
100
AcDbLine
 10
146.998104
 20
33.709581
 30
0.0
 11
163.331238
 21
33.709581
 31
0.0
  0
LINE
  5
252
330
6F
100
AcDbEntity
  8
CSLAYER1
  6
Continuous
 62
     7
100
AcDbLine
 10
163.331238
 20
33.709581
 30
0.0
 11
164.61058
 21
35.709581
 31
0.0
  0
LINE
  5
253
330
6F
100
AcDbEntity
  8
CSLAYER1
  6
Continuous
 62
     7
100
AcDbLine
 10
145.718762
 20
35.709581
 30
0.0
 11
144.628103
 21
54.61032900000001
 31
0.0
  0
ARC
  5
254
330
6F
100
AcDbEntity
  8
CSLAYER1
  6
Continuous
 62
     7
100
AcDbCircle
 10
145.164671
 20
53.20958100000001
 30
0.0
 40
1.5
100
AcDbArc
 50
104.477512
 51
110.959755
  0
ARC
  5
255
330
6F
100
AcDbEntity
  8
CSLAYER1
  6
Continuous
 62
     7
100
AcDbCircle
 10
144.414671
 20
56.114318
 30
0.0
 40
1.5
100
AcDbArc
 50
284.477512
 51
0.0
  0
LINE
  5
256
330
6F
100
AcDbEntity
  8
CSLAYER1
  6
Continuous
 62
     7
100
AcDbLine
 10
145.914671
 20
56.114318
 30
0.0
 11
145.914671
 21
57.45958100000001
 31
0.0
  0
ARC
  5
257
330
6F
100
AcDbEntity
  8
CSLAYER1
  6
Continuous
 62
     7
100
AcDbCircle
 10
144.414671
 20
57.45958100000001
 30
0.0
 40
1.5
100
AcDbArc
 50
0.0
 51
90.0
  0
LINE
  5
258
330
6F
100
AcDbEntity
  8
CSLAYER1
  6
Continuous
 62
     7
100
AcDbLine
 10
144.414671
 20
58.95958100000001
 30
0.0
 11
143.914671
 21
58.95958100000001
 31
0.0
  0
LINE
  5
259
330
6F
100
AcDbEntity
  8
CSLAYER1
  6
Continuous
 62
     7
100
AcDbLine
 10
143.914671
 20
58.95958100000001
 30
0.0
 11
143.914671
 21
76.459581
 31
0.0
  0
LINE
  5
25A
330
6F
100
AcDbEntity
  8
CSLAYER1
  6
Continuous
 62
     7
100
AcDbLine
 10
143.914671
 20
76.459581
 30
0.0
 11
144.164671
 21
76.459581
 31
0.0
  0
ARC
  5
25B
330
6F
100
AcDbEntity
  8
CSLAYER1
  6
Continuous
 62
     7
100
AcDbCircle
 10
144.164671
 20
77.959581
 30
0.0
 40
1.5
100
AcDbArc
 50
270.0
 51
0.0
  0
LINE
  5
25C
330
6F
100
AcDbEntity
  8
CSLAYER1
  6
Continuous
 62
     7
100
AcDbLine
 10
145.664671
 20
77.959581
 30
0.0
 11
145.664671
 21
81.46861300000001
 31
0.0
  0
ARC
  5
25D
330
6F
100
AcDbEntity
  8
CSLAYER1
  6
Continuous
 62
     7
100
AcDbCircle
 10
142.664671
 20
81.46861300000001
 30
0.0
 40
3.0
100
AcDbArc
 50
0.0
 51
60.25511899999999
  0
LINE
  5
25E
330
6F
100
AcDbEntity
  8
CSLAYER1
  6
Continuous
 62
     7
100
AcDbLine
 10
144.153087
 20
84.073343
 30
0.0
 11
143.676254
 21
84.34581899999999
 31
0.0
  0
ARC
  5
25F
330
6F
100
AcDbEntity
  8
CSLAYER1
  6
Continuous
 62
     7
100
AcDbCircle
 10
145.164671
 20
86.95054799999999
 30
0.0
 40
3.0
100
AcDbArc
 50
180.0
 51
240.255119
  0
LINE
  5
260
330
6F
100
AcDbEntity
  8
CSLAYER1
  6
Continuous
 62
     7
100
AcDbLine
 10
142.164671
 20
86.95054799999999
 30
0.0
 11
142.164671
 21
92.473513
 31
0.0
  0
ARC
  5
261
330
6F
100
AcDbEntity
  8
CSLAYER1
  6
Continuous
 62
     7
100
AcDbCircle
 10
140.664671
 20
92.473513
 30
0.0
 40
1.5
100
AcDbArc
 50
0.0
 51
48.189685
  0
ARC
  5
262
330
6F
100
AcDbEntity
  8
CSLAYER1
  6
Continuous
 62
     7
100
AcDbCircle
 10
142.664671
 20
94.709581
 30
0.0
 40
1.5
100
AcDbArc
 50
180.0
 51
228.189685
  0
LINE
  5
263
330
6F
100
AcDbEntity
  8
CSLAYER1
  6
Continuous
 62
     7
100
AcDbLine
 10
141.164671
 20
94.709581
 30
0.0
 11
141.164671
 21
95.709581
 31
0.0
  0
ARC
  5
264
330
6F
100
AcDbEntity
  8
CSLAYER1
  6
Continuous
 62
     7
100
AcDbCircle
 10
142.164671
 20
95.709581
 30
0.0
 40
1.0
100
AcDbArc
 50
90.0
 51
180.0
  0
LINE
  5
265
330
6F
100
AcDbEntity
  8
CSLAYER1
  6
Continuous
 62
     7
100
AcDbLine
 10
142.664671
 20
93.209581
 30
0.0
 11
167.664671
 21
93.209581
 31
0.0
  0
LINE
  5
266
330
6F
100
AcDbEntity
  8
CSLAYER1
  6
Continuous
 62
     7
100
AcDbLine
 10
164.626671
 20
96.709581
 30
0.0
 11
164.626671
 21
97.70958100000001
 31
0.0
  0
ARC
  5
267
330
6F
100
AcDbEntity
  8
CSLAYER1
  6
Continuous
 62
     7
100
AcDbCircle
 10
165.1266709999999
 20
97.70958100000001
 30
0.0
 40
0.5
100
AcDbArc
 50
90.0
 51
180.0
  0
LINE
  5
268
330
6F
100
AcDbEntity
  8
CSLAYER1
  6
Continuous
 62
     7
100
AcDbLine
 10
162.260928
 20
100.209581
 30
0.0
 11
161.214671
 21
100.709581
 31
0.0
  0
LINE
  5
269
330
6F
100
AcDbEntity
  8
CSLAYER1
  6
Continuous
 62
     7
100
AcDbLine
 10
161.214671
 20
100.709581
 30
0.0
 11
159.158689
 21
100.209581
 31
0.0
  0
LINE
  5
26A
330
6F
100
AcDbEntity
  8
CSLAYER1
  6
Continuous
 62
     7
100
AcDbLine
 10
159.158689
 20
100.209581
 30
0.0
 11
161.214671
 21
99.709581
 31
0.0
  0
LINE
  5
26B
330
6F
100
AcDbEntity
  8
CSLAYER1
  6
Continuous
 62
     7
100
AcDbLine
 10
161.214671
 20
99.709581
 30
0.0
 11
162.260928
 21
100.209581
 31
0.0
  0
LINE
  5
26C
330
6F
100
AcDbEntity
  8
CSLAYER1
  6
Continuous
 62
     7
100
AcDbLine
 10
162.260928
 20
100.209581
 30
0.0
 11
159.158689
 21
100.209581
 31
0.0
  0
LINE
  5
26D
330
6F
100
AcDbEntity
  8
CSLAYER1
  6
Continuous
 62
     7
100
AcDbLine
 10
161.226848
 20
99.715401
 30
0.0
 11
161.226848
 21
98.209581
 31
0.0
  0
LINE
  5
26E
330
6F
100
AcDbEntity
  8
CSLAYER1
  6
Continuous
 62
     7
100
AcDbLine
 10
161.226848
 20
100.709581
 30
0.0
 11
161.226848
 21
101.78582
 31
0.0
  0
LINE
  5
26F
330
6F
100
AcDbEntity
  8
CSLAYER1
  6
Continuous
 62
     7
100
AcDbLine
 10
160.0550209999999
 20
102.709581
 30
0.0
 11
159.477671
 21
103.709581
 31
0.0
  0
ARC
  5
270
330
6F
100
AcDbEntity
  8
CSLAYER1
  6
Continuous
 62
     7
100
AcDbCircle
 10
164.815217
 20
79.74225799999999
 30
0.0
 40
27.967323
100
AcDbArc
 50
74.901256
 51
105.098744
  0
ARC
  5
271
330
6F
100
AcDbEntity
  8
CSLAYER1
  6
Continuous
 62
     7
100
AcDbCircle
 10
172.360722
 20
107.709581
 30
0.0
 40
1.0
100
AcDbArc
 50
186.009006
 51
270.0
  0
LINE
  5
272
330
6F
100
AcDbEntity
  8
CSLAYER1
  6
Continuous
 62
     7
100
AcDbLine
 10
171.366217
 20
107.604896
 30
0.0
 11
170.760886
 21
113.355538
 31
0.0
  0
ARC
  5
273
330
6F
100
AcDbEntity
  8
CSLAYER1
  6
Continuous
 62
     7
100
AcDbCircle
 10
172.916276
 20
113.852071
 30
0.0
 40
2.195527
100
AcDbArc
 50
51.43794899999999
 51
186.009006
  0
ARC
  5
274
330
6F
100
AcDbEntity
  8
CSLAYER1
  6
Continuous
 62
     7
100
AcDbCircle
 10
171.168075
 20
111.659159
 30
0.0
 40
5.0
100
AcDbArc
 50
6.009005999999999
 51
51.43794899999999
  0
LINE
  5
275
330
6F
100
AcDbEntity
  8
CSLAYER1
  6
Continuous
 62
     7
100
AcDbLine
 10
176.140602
 20
112.182583
 30
0.0
 11
176.576076
 21
108.045584
 31
0.0
  0
ARC
  5
276
330
6F
100
AcDbEntity
  8
CSLAYER1
  6
Continuous
 62
     7
100
AcDbCircle
 10
175.332944
 20
107.914728
 30
0.0
 40
1.25
100
AcDbArc
 50
285.395096
 51
6.009005999999999
  0
LINE
  5
277
330
6F
100
AcDbEntity
  8
CSLAYER1
  6
Continuous
 62
     7
100
AcDbLine
 10
175.664786
 20
106.709581
 30
0.0
 11
172.360722
 21
106.709581
 31
0.0
  0
ARC
  5
278
330
6F
100
AcDbEntity
  8
CSLAYER1
  6
Continuous
 62
     7
100
AcDbCircle
 10
177.003777
 20
107.394329
 30
0.0
 40
0.5
100
AcDbArc
 50
75.40125299999999
 51
162.70023
  0
LINE
  5
279
330
6F
100
AcDbEntity
  8
CSLAYER1
  6
Continuous
 62
     7
100
AcDbLine
 10
177.129801
 20
107.878187
 30
0.0
 11
181.444344
 21
106.754433
 31
0.0
  0
ARC
  5
27A
330
6F
100
AcDbEntity
  8
CSLAYER1
  6
Continuous
 62
     7
100
AcDbCircle
 10
181.776186
 20
107.959581
 30
0.0
 40
1.25
100
AcDbArc
 50
254.604904
 51
6.009005999999999
  0
LINE
  5
27B
330
6F
100
AcDbEntity
  8
CSLAYER1
  6
Continuous
 62
     7
100
AcDbLine
 10
183.019317
 20
108.090437
 30
0.0
 11
182.583844
 21
112.227436
 31
0.0
  0
ARC
  5
27C
330
6F
100
AcDbEntity
  8
CSLAYER1
  6
Continuous
 62
     7
100
AcDbCircle
 10
177.611317
 20
111.704012
 30
0.0
 40
5.0
100
AcDbArc
 50
6.009005999999999
 51
83.38654
  0
LINE
  5
27D
330
6F
100
AcDbEntity
  8
CSLAYER1
  6
Continuous
 62
     7
100
AcDbLine
 10
178.187169
 20
116.67074
 30
0.0
 11
165.94295
 21
118.09036
 31
0.0
  0
LINE
  5
27E
330
6F
100
AcDbEntity
  8
CSLAYER1
  6
Continuous
 62
     7
100
AcDbLine
 10
165.932928
 20
118.098176
 30
0.0
 11
144.396413
 21
118.098176
 31
0.0
  0
LINE
  5
27F
330
6F
100
AcDbEntity
  8
CSLAYER1
  6
Continuous
 62
     7
100
AcDbLine
 10
144.386391
 20
118.09036
 30
0.0
 11
132.142172
 21
116.67074
 31
0.0
  0
ARC
  5
280
330
6F
100
AcDbEntity
  8
CSLAYER1
  6
Continuous
 62
     7
100
AcDbCircle
 10
132.718025
 20
111.704012
 30
0.0
 40
5.0
100
AcDbArc
 50
96.61346000000001
 51
173.990994
  0
ARC
  5
281
330
6F
100
AcDbEntity
  8
CSLAYER1
  6
Continuous
 62
     7
100
AcDbCircle
 10
131.726949
 20
113.69861
 30
0.0
 40
2.772747999999999
100
AcDbArc
 50
354.53607
 51
116.421854
  0
ARC
  5
282
330
6F
100
AcDbEntity
  8
CSLAYER1
  6
Continuous
 62
     7
100
AcDbCircle
 10
146.183033
 20
105.095246
 30
0.0
 40
11.105468
100
AcDbArc
 50
58.52006700000001
 51
122.75312
  0
ARC
  5
283
330
6F
100
AcDbEntity
  8
CSLAYER1
  6
Continuous
 62
     7
100
AcDbCircle
 10
164.146308
 20
105.095246
 30
0.0
 40
11.105468
100
AcDbArc
 50
57.24688000000001
 51
121.479933
  0
ARC
  5
284
330
6F
100
AcDbEntity
  8
CSLAYER1
  6
Continuous
 62
     7
100
AcDbCircle
 10
178.602392
 20
113.69861
 30
0.0
 40
2.772747999999999
100
AcDbArc
 50
63.578146
 51
185.46393
  0
ARC
  5
285
330
6F
100
AcDbEntity
  8
CSLAYER1
  6
Continuous
 62
     7
100
AcDbCircle
 10
155.164671
 20
163.928331
 30
0.0
 40
28.0
100
AcDbArc
 50
310.763216
 51
319.236784
  0
ARC
  5
286
330
6F
100
AcDbEntity
  8
CSLAYER1
  6
Continuous
 62
     7
100
AcDbCircle
 10
174.857445
 20
146.952034
 30
0.0
 40
2.0
100
AcDbArc
 50
319.236784
 51
20.265252
  0
ARC
  5
287
330
6F
100
AcDbEntity
  8
CSLAYER1
  6
Continuous
 62
     7
100
AcDbCircle
 10
186.114635
 20
151.108436
 30
0.0
 40
10.0
100
AcDbArc
 50
114.734748
 51
200.265252
  0
ARC
  5
288
330
6F
100
AcDbEntity
  8
CSLAYER1
  6
Continuous
 62
     7
100
AcDbCircle
 10
181.0936189999999
 20
162.007491
 30
0.0
 40
2.0
100
AcDbArc
 50
294.734748
 51
355.763216
  0
ARC
  5
289
330
6F
100
AcDbEntity
  8
CSLAYER1
  6
Continuous
 62
     7
100
AcDbCircle
 10
155.164671
 20
163.928331
 30
0.0
 40
28.0
100
AcDbArc
 50
355.763216
 51
4.236783999999999
  0
ARC
  5
28A
330
6F
100
AcDbEntity
  8
CSLAYER1
  6
Continuous
 62
     7
100
AcDbCircle
 10
181.0936189999999
 20
165.849171
 30
0.0
 40
2.0
100
AcDbArc
 50
4.236783999999999
 51
65.265252
  0
ARC
  5
28B
330
6F
100
AcDbEntity
  8
CSLAYER1
  6
Continuous
 62
     7
100
AcDbCircle
 10
186.114635
 20
176.748226
 30
0.0
 40
10.0
100
AcDbArc
 50
159.734748
 51
245.265252
  0
ARC
  5
28C
330
6F
100
AcDbEntity
  8
CSLAYER1
  6
Continuous
 62
     7
100
AcDbCircle
 10
174.857445
 20
180.904627
 30
0.0
 40
2.0
100
AcDbArc
 50
339.734748
 51
40.76321599999999
  0
ARC
  5
28D
330
6F
100
AcDbEntity
  8
CSLAYER1
  6
Continuous
 62
     7
100
AcDbCircle
 10
155.164671
 20
163.928331
 30
0.0
 40
28.0
100
AcDbArc
 50
40.76321599999999
 51
49.236784
  0
ARC
  5
28E
330
6F
100
AcDbEntity
  8
CSLAYER1
  6
Continuous
 62
     7
100
AcDbCircle
 10
172.140967
 20
183.621105
 30
0.0
 40
2.0
100
AcDbArc
 50
49.236784
 51
110.265252
  0
ARC
  5
28F
330
6F
100
AcDbEntity
  8
CSLAYER1
  6
Continuous
 62
     7
100
AcDbCircle
 10
167.984566
 20
194.878295
 30
0.0
 40
10.0
100
AcDbArc
 50
204.734748
 51
290.265252
  0
ARC
  5
290
330
6F
100
AcDbEntity
  8
CSLAYER1
  6
Continuous
 62
     7
100
AcDbCircle
 10
157.085511
 20
189.857279
 30
0.0
 40
2.0
100
AcDbArc
 50
24.734748
 51
85.76321599999999
  0
ARC
  5
291
330
6F
100
AcDbEntity
  8
CSLAYER1
  6
Continuous
 62
     7
100
AcDbCircle
 10
155.164671
 20
163.928331
 30
0.0
 40
28.0
100
AcDbArc
 50
85.76321599999999
 51
94.236784
  0
ARC
  5
292
330
6F
100
AcDbEntity
  8
CSLAYER1
  6
Continuous
 62
     7
100
AcDbCircle
 10
153.243831
 20
189.857279
 30
0.0
 40
2.0
100
AcDbArc
 50
94.236784
 51
155.265252
  0
ARC
  5
293
330
6F
100
AcDbEntity
  8
CSLAYER1
  6
Continuous
 62
     7
100
AcDbCircle
 10
142.344776
 20
194.878295
 30
0.0
 40
10.0
100
AcDbArc
 50
249.734748
 51
335.265252
  0
ARC
  5
294
330
6F
100
AcDbEntity
  8
CSLAYER1
  6
Continuous
 62
     7
100
AcDbCircle
 10
138.188374
 20
183.621105
 30
0.0
 40
2.0
100
AcDbArc
 50
69.73474799999999
 51
130.763216
  0
ARC
  5
295
330
6F
100
AcDbEntity
  8
CSLAYER1
  6
Continuous
 62
     7
100
AcDbCircle
 10
155.164671
 20
163.928331
 30
0.0
 40
28.0
100
AcDbArc
 50
130.763216
 51
139.236784
  0
ARC
  5
296
330
6F
100
AcDbEntity
  8
CSLAYER1
  6
Continuous
 62
     7
100
AcDbCircle
 10
135.471896
 20
180.904627
 30
0.0
 40
2.0
100
AcDbArc
 50
139.236784
 51
200.265252
  0
ARC
  5
297
330
6F
100
AcDbEntity
  8
CSLAYER1
  6
Continuous
 62
     7
100
AcDbCircle
 10
124.214706
 20
176.748226
 30
0.0
 40
10.0
100
AcDbArc
 50
294.734748
 51
20.265252
  0
ARC
  5
298
330
6F
100
AcDbEntity
  8
CSLAYER1
  6
Continuous
 62
     7
100
AcDbCircle
 10
129.235722
 20
165.849171
 30
0.0
 40
2.0
100
AcDbArc
 50
114.734748
 51
175.763216
  0
ARC
  5
299
330
6F
100
AcDbEntity
  8
CSLAYER1
  6
Continuous
 62
     7
100
AcDbCircle
 10
155.164671
 20
163.928331
 30
0.0
 40
28.0
100
AcDbArc
 50
175.763216
 51
184.236784
  0
ARC
  5
29A
330
6F
100
AcDbEntity
  8
CSLAYER1
  6
Continuous
 62
     7
100
AcDbCircle
 10
129.235722
 20
162.007491
 30
0.0
 40
2.0
100
AcDbArc
 50
184.236784
 51
245.265252
  0
ARC
  5
29B
330
6F
100
AcDbEntity
  8
CSLAYER1
  6
Continuous
 62
     7
100
AcDbCircle
 10
124.214706
 20
151.108436
 30
0.0
 40
10.0
100
AcDbArc
 50
339.734748
 51
65.265252
  0
ARC
  5
29C
330
6F
100
AcDbEntity
  8
CSLAYER1
  6
Continuous
 62
     7
100
AcDbCircle
 10
135.471896
 20
146.952034
 30
0.0
 40
2.0
100
AcDbArc
 50
159.734748
 51
220.763216
  0
ARC
  5
29D
330
6F
100
AcDbEntity
  8
CSLAYER1
  6
Continuous
 62
     7
100
AcDbCircle
 10
155.164671
 20
163.928331
 30
0.0
 40
28.0
100
AcDbArc
 50
220.763216
 51
229.236784
  0
ARC
  5
29E
330
6F
100
AcDbEntity
  8
CSLAYER1
  6
Continuous
 62
     7
100
AcDbCircle
 10
138.188374
 20
144.235557
 30
0.0
 40
2.0
100
AcDbArc
 50
229.236784
 51
290.265252
  0
ARC
  5
29F
330
6F
100
AcDbEntity
  8
CSLAYER1
  6
Continuous
 62
     7
100
AcDbCircle
 10
142.344776
 20
132.978366
 30
0.0
 40
10.0
100
AcDbArc
 50
24.734748
 51
110.265252
  0
ARC
  5
2A0
330
6F
100
AcDbEntity
  8
CSLAYER1
  6
Continuous
 62
     7
100
AcDbCircle
 10
153.243831
 20
137.999382
 30
0.0
 40
2.0
100
AcDbArc
 50
204.734748
 51
265.763216
  0
ARC
  5
2A1
330
6F
100
AcDbEntity
  8
CSLAYER1
  6
Continuous
 62
     7
100
AcDbCircle
 10
155.164671
 20
163.928331
 30
0.0
 40
28.0
100
AcDbArc
 50
265.763216
 51
274.236784
  0
ARC
  5
2A2
330
6F
100
AcDbEntity
  8
CSLAYER1
  6
Continuous
 62
     7
100
AcDbCircle
 10
157.085511
 20
137.999382
 30
0.0
 40
2.0
100
AcDbArc
 50
274.236784
 51
335.265252
  0
ARC
  5
2A3
330
6F
100
AcDbEntity
  8
CSLAYER1
  6
Continuous
 62
     7
100
AcDbCircle
 10
167.984566
 20
132.978366
 30
0.0
 40
10.0
100
AcDbArc
 50
69.73474799999999
 51
155.265252
  0
ARC
  5
2A4
330
6F
100
AcDbEntity
  8
CSLAYER1
  6
Continuous
 62
     7
100
AcDbCircle
 10
172.140967
 20
144.235557
 30
0.0
 40
2.0
100
AcDbArc
 50
249.734748
 51
310.763216
  0
LINE
  5
2A5
330
6F
100
AcDbEntity
  8
CSLAYER1
  6
Continuous
 62
     7
100
AcDbLine
 10
154.97839
 20
150.325417
 30
0.0
 11
152.058842
 21
152.337221
 31
0.0
  0
LINE
  5
2A6
330
6F
100
AcDbEntity
  8
CSLAYER1
  6
Continuous
 62
     7
100
AcDbLine
 10
152.058842
 20
152.337221
 30
0.0
 11
155.236353
 21
153.273949
 31
0.0
  0
LINE
  5
2A7
330
6F
100
AcDbEntity
  8
CSLAYER1
  6
Continuous
 62
     7
100
AcDbLine
 10
155.236353
 20
153.273949
 30
0.0
 11
155.162371
 21
152.428331
 31
0.0
  0
ARC
  5
2A8
330
6F
100
AcDbEntity
  8
CSLAYER1
  6
Continuous
 62
     7
100
AcDbCircle
 10
155.164671
 20
163.928331
 30
0.0
 40
11.5
100
AcDbArc
 50
269.988542
 51
320.0
  0
LINE
  5
2A9
330
6F
100
AcDbEntity
  8
CSLAYER1
  6
Continuous
 62
     7
100
AcDbLine
 10
163.974182
 20
156.536273
 30
0.0
 11
164.740226
 21
155.893486
 31
0.0
  0
ARC
  5
2AA
330
6F
100
AcDbEntity
  8
CSLAYER1
  6
Continuous
 62
     7
100
AcDbCircle
 10
155.164671
 20
163.928331
 30
0.0
 40
12.5
100
AcDbArc
 50
269.588566
 51
320.0
  0
LINE
  5
2AB
330
6F
100
AcDbEntity
  8
CSLAYER1
  6
Continuous
 62
     7
100
AcDbLine
 10
155.07491
 20
151.428653
 30
0.0
 11
154.97839
 21
150.325417
 31
0.0
  0
LINE
  5
2AC
330
6F
100
AcDbEntity
  8
CSLAYER1
  6
Continuous
 62
     7
100
AcDbLine
 10
146.310317
 20
107.698245
 30
0.0
 11
146.542355
 21
106.068616
 31
0.0
  0
ARC
  5
2AD
330
6F
100
AcDbEntity
  8
CSLAYER1
  6
Continuous
 62
     7
100
AcDbCircle
 10
147.53237
 20
106.209581
 30
0.0
 40
1.0
100
AcDbArc
 50
188.103698
 51
270.0
  0
ARC
  5
2AE
330
6F
100
AcDbEntity
  8
CSLAYER1
  6
Continuous
 62
     7
100
AcDbCircle
 10
146.083582
 20
97.314699
 30
0.0
 40
5.394881999999999
100
AcDbArc
 50
55.972694
 51
90.0
  0
LINE
  5
2AF
330
6F
100
AcDbEntity
  8
CSLAYER1
  6
Continuous
 62
     7
100
AcDbLine
 10
144.58342
 20
85.20958099999999
 30
0.0
 11
165.665824
 21
85.20958099999999
 31
0.0
  0
LINE
  5
2B0
330
6F
100
AcDbEntity
  8
CSLAYER1
  6
Continuous
 62
     7
100
AcDbLine
 10
163.214382
 20
83.209581
 30
0.0
 11
147.034863
 21
83.209581
 31
0.0
  0
LINE
  5
2B1
330
6F
100
AcDbEntity
  8
CSLAYER1
  6
Continuous
 62
     7
100
AcDbLine
 10
139.864671
 20
78.409581
 30
0.0
 11
138.864671
 21
78.409581
 31
0.0
  0
LINE
  5
2B2
330
6F
100
AcDbEntity
  8
CSLAYER1
  6
Continuous
 62
     7
100
AcDbLine
 10
138.864671
 20
78.409581
 30
0.0
 11
138.864671
 21
57.00958100000001
 31
0.0
  0
LINE
  5
2B3
330
6F
100
AcDbEntity
  8
CSLAYER1
  6
Continuous
 62
     7
100
AcDbLine
 10
138.864671
 20
57.00958100000001
 30
0.0
 11
139.864671
 21
57.00958100000001
 31
0.0
  0
LINE
  5
2B4
330
6F
100
AcDbEntity
  8
CSLAYER1
  6
Continuous
 62
     7
100
AcDbLine
 10
139.864671
 20
57.00958100000001
 30
0.0
 11
139.864671
 21
78.409581
 31
0.0
  0
LINE
  5
2B5
330
6F
100
AcDbEntity
  8
CSLAYER1
  6
Continuous
 62
     7
100
AcDbLine
 10
138.864671
 20
78.209581
 30
0.0
 11
131.177063
 21
78.209581
 31
0.0
  0
ARC
  5
2B6
330
6F
100
AcDbEntity
  8
CSLAYER1
  6
Continuous
 62
     7
100
AcDbCircle
 10
131.177063
 20
74.709581
 30
0.0
 40
3.5
100
AcDbArc
 50
90.0
 51
140.0
  0
LINE
  5
2B7
330
6F
100
AcDbEntity
  8
CSLAYER1
  6
Continuous
 62
     7
100
AcDbLine
 10
128.495908
 20
76.95933700000001
 30
0.0
 11
126.683515
 21
74.799412
 31
0.0
  0
ARC
  5
2B8
330
6F
100
AcDbEntity
  8
CSLAYER1
  6
Continuous
 62
     7
100
AcDbCircle
 10
129.364671
 20
72.549655
 30
0.0
 40
3.5
100
AcDbArc
 50
140.0
 51
180.0
  0
LINE
  5
2B9
330
6F
100
AcDbEntity
  8
CSLAYER1
  6
Continuous
 62
     7
100
AcDbLine
 10
125.864671
 20
72.549655
 30
0.0
 11
125.864671
 21
62.869506
 31
0.0
  0
ARC
  5
2BA
330
6F
100
AcDbEntity
  8
CSLAYER1
  6
Continuous
 62
     7
100
AcDbCircle
 10
129.364671
 20
62.869506
 30
0.0
 40
3.5
100
AcDbArc
 50
180.0
 51
220.0
  0
LINE
  5
2BB
330
6F
100
AcDbEntity
  8
CSLAYER1
  6
Continuous
 62
     7
100
AcDbLine
 10
126.683515
 20
60.61975
 30
0.0
 11
128.495908
 21
58.459824
 31
0.0
  0
ARC
  5
2BC
330
6F
100
AcDbEntity
  8
CSLAYER1
  6
Continuous
 62
     7
100
AcDbCircle
 10
131.177063
 20
60.70958100000001
 30
0.0
 40
3.5
100
AcDbArc
 50
220.0
 51
270.0
  0
LINE
  5
2BD
330
6F
100
AcDbEntity
  8
CSLAYER1
  6
Continuous
 62
     7
100
AcDbLine
 10
131.177063
 20
57.209581
 30
0.0
 11
138.864671
 21
57.209581
 31
0.0
  0
LINE
  5
2BE
330
6F
100
AcDbEntity
  8
CSLAYER1
  6
Continuous
 62
     7
100
AcDbLine
 10
139.864671
 20
58.57560600000001
 30
0.0
 11
140.364671
 21
58.70958100000001
 31
0.0
  0
LINE
  5
2BF
330
6F
100
AcDbEntity
  8
CSLAYER1
  6
Continuous
 62
     7
100
AcDbLine
 10
140.364671
 20
58.70958100000001
 30
0.0
 11
140.364671
 21
76.709581
 31
0.0
  0
LINE
  5
2C0
330
6F
100
AcDbEntity
  8
CSLAYER1
  6
Continuous
 62
     7
100
AcDbLine
 10
140.364671
 20
76.709581
 30
0.0
 11
139.864671
 21
76.84355500000001
 31
0.0
  0
LINE
  5
2C1
330
6F
100
AcDbEntity
  8
CSLAYER1
  6
Continuous
 62
     7
100
AcDbLine
 10
140.364671
 20
75.709581
 30
0.0
 11
143.164671
 21
75.709581
 31
0.0
  0
LINE
  5
2C2
330
6F
100
AcDbEntity
  8
CSLAYER1
  6
Continuous
 62
     7
100
AcDbLine
 10
143.164671
 20
75.709581
 30
0.0
 11
143.932714
 21
76.47762400000001
 31
0.0
  0
LINE
  5
2C3
330
6F
100
AcDbEntity
  8
CSLAYER1
  6
Continuous
 62
     7
100
AcDbLine
 10
143.164671
 20
75.709581
 30
0.0
 11
143.164671
 21
59.709581
 31
0.0
  0
LINE
  5
2C4
330
6F
100
AcDbEntity
  8
CSLAYER1
  6
Continuous
 62
     7
100
AcDbLine
 10
143.164671
 20
59.709581
 30
0.0
 11
143.932714
 21
58.941538
 31
0.0
  0
LINE
  5
2C5
330
6F
100
AcDbEntity
  8
CSLAYER1
  6
Continuous
 62
     7
100
AcDbLine
 10
143.164671
 20
59.709581
 30
0.0
 11
140.364671
 21
59.709581
 31
0.0
  0
LINE
  5
2C6
330
6F
100
AcDbEntity
  8
CSLAYER1
  6
Continuous
 62
     7
100
AcDbLine
 10
141.664671
 20
59.709581
 30
0.0
 11
141.664671
 21
75.709581
 31
0.0
  0
LINE
  5
2C7
330
6F
100
AcDbEntity
  8
CSLAYER1
  6
Continuous
 62
     7
100
AcDbLine
 10
149.664671
 20
68.209581
 30
0.0
 11
162.664671
 21
68.209581
 31
0.0
  0
ARC
  5
2C8
330
6F
100
AcDbEntity
  8
CSLAYER1
  6
Continuous
 62
     7
100
AcDbCircle
 10
162.664671
 20
67.209581
 30
0.0
 40
1.0
100
AcDbArc
 50
0.0
 51
90.0
  0
LINE
  5
2C9
330
6F
100
AcDbEntity
  8
CSLAYER1
  6
Continuous
 62
     7
100
AcDbLine
 10
163.664671
 20
67.209581
 30
0.0
 11
163.664671
 21
63.20958100000001
 31
0.0
  0
ARC
  5
2CA
330
6F
100
AcDbEntity
  8
CSLAYER1
  6
Continuous
 62
     7
100
AcDbCircle
 10
162.664671
 20
63.20958100000001
 30
0.0
 40
1.0
100
AcDbArc
 50
270.0
 51
0.0
  0
LINE
  5
2CB
330
6F
100
AcDbEntity
  8
CSLAYER1
  6
Continuous
 62
     7
100
AcDbLine
 10
162.664671
 20
62.209581
 30
0.0
 11
149.664671
 21
62.209581
 31
0.0
  0
ARC
  5
2CC
330
6F
100
AcDbEntity
  8
CSLAYER1
  6
Continuous
 62
     7
100
AcDbCircle
 10
149.664671
 20
63.20958100000001
 30
0.0
 40
1.0
100
AcDbArc
 50
180.0
 51
270.0
  0
LINE
  5
2CD
330
6F
100
AcDbEntity
  8
CSLAYER1
  6
Continuous
 62
     7
100
AcDbLine
 10
148.664671
 20
63.20958100000001
 30
0.0
 11
148.664671
 21
67.209581
 31
0.0
  0
ARC
  5
2CE
330
6F
100
AcDbEntity
  8
CSLAYER1
  6
Continuous
 62
     7
100
AcDbCircle
 10
149.664671
 20
67.209581
 30
0.0
 40
1.0
100
AcDbArc
 50
90.0
 51
180.0
  0
LINE
  5
2CF
330
6F
100
AcDbEntity
  8
CSLAYER1
  6
Continuous
 62
     7
100
AcDbLine
 10
149.939264
 20
65.148813
 30
0.0
 11
150.739264
 21
63.89881299999999
 31
0.0
  0
LINE
  5
2D0
330
6F
100
AcDbEntity
  8
CSLAYER1
  6
Continuous
 62
     7
100
AcDbLine
 10
150.739264
 20
63.89881299999999
 30
0.0
 11
149.939264
 21
62.64881299999999
 31
0.0
  0
LINE
  5
2D1
330
6F
100
AcDbEntity
  8
CSLAYER1
  6
Continuous
 62
     7
100
AcDbLine
 10
150.739264
 20
62.64881299999999
 30
0.0
 11
150.739264
 21
65.148813
 31
0.0
  0
LINE
  5
2D2
330
6F
100
AcDbEntity
  8
CSLAYER1
  6
Continuous
 62
     7
100
AcDbLine
 10
151.639264
 20
65.148813
 30
0.0
 11
151.639264
 21
62.64881299999999
 31
0.0
  0
LINE
  5
2D3
330
6F
100
AcDbEntity
  8
CSLAYER1
  6
Continuous
 62
     7
100
AcDbLine
 10
152.439264
 20
62.64881299999999
 30
0.0
 11
151.639264
 21
63.89881299999999
 31
0.0
  0
LINE
  5
2D4
330
6F
100
AcDbEntity
  8
CSLAYER1
  6
Continuous
 62
     7
100
AcDbLine
 10
151.639264
 20
63.89881299999999
 30
0.0
 11
152.439264
 21
65.148813
 31
0.0
  0
LINE
  5
2D5
330
6F
100
AcDbEntity
  8
CSLAYER1
  6
Continuous
 62
     7
100
AcDbLine
 10
151.639264
 20
63.89881299999999
 30
0.0
 11
150.739264
 21
63.89881299999999
 31
0.0
  0
LINE
  5
2D6
330
6F
100
AcDbEntity
  8
CSLAYER1
  6
Continuous
 62
     7
100
AcDbLine
 10
145.164671
 20
54.709581
 30
0.0
 11
165.164671
 21
54.709581
 31
0.0
  0
LINE
  5
2D7
330
6F
100
AcDbEntity
  8
CSLAYER1
  6
Continuous
 62
     7
100
AcDbLine
 10
169.164671
 20
61.709581
 30
0.0
 11
169.164671
 21
86.709581
 31
0.0
  0
LINE
  5
2D8
330
6F
100
AcDbEntity
  8
CSLAYER1
  6
Continuous
 62
     7
100
AcDbLine
 10
181.164671
 20
86.709581
 30
0.0
 11
181.164671
 21
61.709581
 31
0.0
  0
LINE
  5
2D9
330
6F
100
AcDbEntity
  8
CSLAYER1
  6
Continuous
 62
     7
100
AcDbLine
 10
173.664671
 20
163.928331
 30
0.0
 11
170.164671
 21
169.178331
 31
0.0
  0
LINE
  5
2DA
330
6F
100
AcDbEntity
  8
CSLAYER1
  6
Continuous
 62
     7
100
AcDbLine
 10
170.164671
 20
169.178331
 30
0.0
 11
166.664671
 21
163.928331
 31
0.0
  0
LINE
  5
2DB
330
6F
100
AcDbEntity
  8
CSLAYER1
  6
Continuous
 62
     7
100
AcDbLine
 10
166.664671
 20
163.928331
 30
0.0
 11
170.164671
 21
158.678331
 31
0.0
  0
LINE
  5
2DC
330
6F
100
AcDbEntity
  8
CSLAYER1
  6
Continuous
 62
     7
100
AcDbLine
 10
170.164671
 20
158.678331
 30
0.0
 11
173.664671
 21
163.928331
 31
0.0
  0
LINE
  5
2DD
330
6F
100
AcDbEntity
  8
CSLAYER1
  6
Continuous
 62
     7
100
AcDbLine
 10
164.740226
 20
171.963176
 30
0.0
 11
163.974182
 21
171.320388
 31
0.0
  0
ARC
  5
2DE
330
6F
100
AcDbEntity
  8
CSLAYER1
  6
Continuous
 62
     7
100
AcDbCircle
 10
155.164671
 20
163.928331
 30
0.0
 40
11.5
100
AcDbArc
 50
40.0
 51
90.01145800000001
  0
LINE
  5
2DF
330
6F
100
AcDbEntity
  8
CSLAYER1
  6
Continuous
 62
     7
100
AcDbLine
 10
155.162371
 20
175.428331
 30
0.0
 11
155.236353
 21
174.582713
 31
0.0
  0
LINE
  5
2E0
330
6F
100
AcDbEntity
  8
CSLAYER1
  6
Continuous
 62
     7
100
AcDbLine
 10
155.236353
 20
174.582713
 30
0.0
 11
152.058842
 21
175.519441
 31
0.0
  0
LINE
  5
2E1
330
6F
100
AcDbEntity
  8
CSLAYER1
  6
Continuous
 62
     7
100
AcDbLine
 10
152.058842
 20
175.519441
 30
0.0
 11
154.97839
 21
177.531245
 31
0.0
  0
LINE
  5
2E2
330
6F
100
AcDbEntity
  8
CSLAYER1
  6
Continuous
 62
     7
100
AcDbLine
 10
154.97839
 20
177.531245
 30
0.0
 11
155.07491
 21
176.428009
 31
0.0
  0
ARC
  5
2E3
330
6F
100
AcDbEntity
  8
CSLAYER1
  6
Continuous
 62
     7
100
AcDbCircle
 10
155.164671
 20
163.928331
 30
0.0
 40
12.5
100
AcDbArc
 50
40.0
 51
90.41143400000001
  0
LINE
  5
2E4
330
6F
100
AcDbEntity
  8
CSLAYER1
  6
Continuous
 62
     7
100
AcDbLine
 10
157.264671
 20
164.499759
 30
0.0
 11
157.264671
 21
163.356902
 31
0.0
  0
LINE
  5
2E5
330
6F
100
AcDbEntity
  8
CSLAYER1
  6
Continuous
 62
     7
100
AcDbLine
 10
157.264671
 20
163.356902
 30
0.0
 11
156.536099
 21
163.356902
 31
0.0
  0
ARC
  5
2E6
330
6F
100
AcDbEntity
  8
CSLAYER1
  6
Continuous
 62
     7
100
AcDbCircle
 10
156.536099
 20
162.556902
 30
0.0
 40
0.8
100
AcDbArc
 50
90.0
 51
180.0
  0
LINE
  5
2E7
330
6F
100
AcDbEntity
  8
CSLAYER1
  6
Continuous
 62
     7
100
AcDbLine
 10
155.736099
 20
162.556902
 30
0.0
 11
155.736099
 21
161.828331
 31
0.0
  0
LINE
  5
2E8
330
6F
100
AcDbEntity
  8
CSLAYER1
  6
Continuous
 62
     7
100
AcDbLine
 10
155.736099
 20
161.828331
 30
0.0
 11
154.593242
 21
161.828331
 31
0.0
  0
LINE
  5
2E9
330
6F
100
AcDbEntity
  8
CSLAYER1
  6
Continuous
 62
     7
100
AcDbLine
 10
154.593242
 20
161.828331
 30
0.0
 11
154.593242
 21
162.556902
 31
0.0
  0
ARC
  5
2EA
330
6F
100
AcDbEntity
  8
CSLAYER1
  6
Continuous
 62
     7
100
AcDbCircle
 10
153.793242
 20
162.556902
 30
0.0
 40
0.8
100
AcDbArc
 50
0.0
 51
90.0
  0
LINE
  5
2EB
330
6F
100
AcDbEntity
  8
CSLAYER1
  6
Continuous
 62
     7
100
AcDbLine
 10
153.793242
 20
163.356902
 30
0.0
 11
153.064671
 21
163.356902
 31
0.0
  0
LINE
  5
2EC
330
6F
100
AcDbEntity
  8
CSLAYER1
  6
Continuous
 62
     7
100
AcDbLine
 10
153.064671
 20
163.356902
 30
0.0
 11
153.064671
 21
164.499759
 31
0.0
  0
LINE
  5
2ED
330
6F
100
AcDbEntity
  8
CSLAYER1
  6
Continuous
 62
     7
100
AcDbLine
 10
153.064671
 20
164.499759
 30
0.0
 11
153.793242
 21
164.499759
 31
0.0
  0
ARC
  5
2EE
330
6F
100
AcDbEntity
  8
CSLAYER1
  6
Continuous
 62
     7
100
AcDbCircle
 10
153.793242
 20
165.299759
 30
0.0
 40
0.8
100
AcDbArc
 50
270.0
 51
0.0
  0
LINE
  5
2EF
330
6F
100
AcDbEntity
  8
CSLAYER1
  6
Continuous
 62
     7
100
AcDbLine
 10
154.593242
 20
165.299759
 30
0.0
 11
154.593242
 21
166.028331
 31
0.0
  0
LINE
  5
2F0
330
6F
100
AcDbEntity
  8
CSLAYER1
  6
Continuous
 62
     7
100
AcDbLine
 10
154.593242
 20
166.028331
 30
0.0
 11
155.736099
 21
166.028331
 31
0.0
  0
LINE
  5
2F1
330
6F
100
AcDbEntity
  8
CSLAYER1
  6
Continuous
 62
     7
100
AcDbLine
 10
155.736099
 20
166.028331
 30
0.0
 11
155.736099
 21
165.299759
 31
0.0
  0
ARC
  5
2F2
330
6F
100
AcDbEntity
  8
CSLAYER1
  6
Continuous
 62
     7
100
AcDbCircle
 10
156.536099
 20
165.299759
 30
0.0
 40
0.8
100
AcDbArc
 50
180.0
 51
270.0
  0
LINE
  5
2F3
330
6F
100
AcDbEntity
  8
CSLAYER1
  6
Continuous
 62
     7
100
AcDbLine
 10
156.536099
 20
164.499759
 30
0.0
 11
157.264671
 21
164.499759
 31
0.0
  0
CIRCLE
  5
2F4
330
6F
100
AcDbEntity
  8
CSLAYER1
  6
Continuous
 62
     7
100
AcDbCircle
 10
155.164671
 20
163.928331
 30
0.0
 40
9.75
  0
CIRCLE
  5
2F5
330
6F
100
AcDbEntity
  8
CSLAYER1
  6
Continuous
 62
     7
100
AcDbCircle
 10
155.164671
 20
163.928331
 30
0.0
 40
3.5
  0
CIRCLE
  5
2F6
330
6F
100
AcDbEntity
  8
CSLAYER1
  6
Continuous
 62
     7
100
AcDbCircle
 10
155.164671
 20
163.928331
 30
0.0
 40
5.0
  0
CIRCLE
  5
2F7
330
6F
100
AcDbEntity
  8
CSLAYER1
  6
Continuous
 62
     7
100
AcDbCircle
 10
148.692609
 20
177.926986
 30
0.0
 40
1.703016
  0
TEXT
  5
2F8
330
6F
100
AcDbEntity
  8
CSLAYER1
 62
     7
100
AcDbText
 10
168.348022
 20
166.829666
 30
0.0
 40
3.779999999999999
  1
MS
 50
270.0
 41
0.9257142857142891
  7
JX_FONT
 72
     5
 11
168.348022
 21
160.997666
 31
0.0
100
AcDbText
  0
TEXT
  5
2F9
330
6F
100
AcDbEntity
  8
CSLAYER1
 62
     7
100
AcDbText
 10
149.439255
 20
65.770882
 30
0.0
 40
2.0
  1
97.09.01
 41
0.9333333333333333
  7
JX_FONT
 72
     5
 11
163.439255
 21
65.770882
 31
0.0
100
AcDbText
  0
TEXT
  5
2FA
330
6F
100
AcDbEntity
  8
CSLAYER1
 62
     7
100
AcDbText
 10
156.43924
 20
62.89881499999999
 30
0.0
 40
2.0
  1
X001
  7
JX_FONT
 72
     5
 11
163.43924
 21
62.89881499999999
 31
0.0
100
AcDbText
  0
LINE
  5
2FB
330
6F
100
AcDbEntity
  8
CSLAYER1
  6
CENTER
 62
     7
100
AcDbLine
 10
84.00395600000001
 20
28.093509
 30
0.0
 11
84.00395600000001
 21
60.68598399999999
 31
0.0
  0
LINE
  5
2FC
330
6F
100
AcDbEntity
  8
CSLAYER1
  6
CENTER
 62
     7
100
AcDbLine
 10
93.70900999999999
 20
67.709581
 30
0.0
 11
116.029785
 21
67.709581
 31
0.0
  0
LINE
  5
2FD
330
6F
100
AcDbEntity
  8
CSLAYER1
  6
CENTER
 62
     7
100
AcDbLine
 10
75.95835699999999
 20
74.209581
 30
0.0
 11
46.978127
 21
74.209581
 31
0.0
  0
LINE
  5
2FE
330
6F
100
AcDbEntity
  8
CSLAYER1
  6
CENTER
 62
     7
100
AcDbLine
 10
84.00395600000001
 20
92.175705
 30
0.0
 11
84.00395600000001
 21
121.995375
 31
0.0
  0
LINE
  5
2FF
330
6F
100
AcDbEntity
  8
CSLAYER1
  6
CENTER
 62
     7
100
AcDbLine
 10
122.459314
 20
163.928331
 30
0.0
 11
163.302475
 21
163.928331
 31
0.0
  0
LINE
  5
300
330
6F
100
AcDbEntity
  8
CSLAYER1
  6
CENTER
 62
     7
100
AcDbLine
 10
155.164671
 20
155.876673
 30
0.0
 11
155.164671
 21
172.505579
 31
0.0
  0
LINE
  5
301
330
6F
100
AcDbEntity
  8
CSLAYER1
  6
CENTER
 62
     7
100
AcDbLine
 10
155.164671
 20
183.704638
 30
0.0
 11
155.164671
 21
196.019184
 31
0.0
  0
LINE
  5
302
330
6F
100
AcDbEntity
  8
CSLAYER1
  6
CENTER
 62
     7
100
AcDbLine
 10
176.270338
 20
163.928331
 30
0.0
 11
186.986099
 21
163.928331
 31
0.0
  0
LINE
  5
303
330
6F
100
AcDbEntity
  8
CSLAYER1
  6
CENTER
 62
     7
100
AcDbLine
 10
155.164671
 20
144.338248
 30
0.0
 11
155.164671
 21
131.158242
 31
0.0
  0
LINE
  5
304
330
6F
100
AcDbEntity
  8
CSLAYER1
  6
CENTER
 62
     7
100
AcDbLine
 10
155.164671
 20
121.995375
 30
0.0
 11
155.164671
 21
92.175705
 31
0.0
  0
LINE
  5
305
330
6F
100
AcDbEntity
  8
CSLAYER1
  6
CENTER
 62
     7
100
AcDbLine
 10
155.164671
 20
86.171711
 30
0.0
 11
155.164671
 21
82.364315
 31
0.0
  0
LINE
  5
306
330
6F
100
AcDbEntity
  8
CSLAYER1
  6
CENTER
 62
     7
100
AcDbLine
 10
155.164671
 20
72.850525
 30
0.0
 11
155.164671
 21
69.493401
 31
0.0
  0
LINE
  5
307
330
6F
100
AcDbEntity
  8
CSLAYER1
  6
CENTER
 62
     7
100
AcDbLine
 10
155.164671
 20
60.403318
 30
0.0
 11
155.164671
 21
27.517617
 31
0.0
  0
LINE
  5
308
330
6F
100
AcDbEntity
  8
CSLAYER1
  6
CENTER
 62
     7
100
AcDbLine
 10
146.164671
 20
67.709581
 30
0.0
 11
122.827617
 21
67.709581
 31
0.0
  0
LINE
  5
309
330
6F
100
AcDbEntity
  8
CSLAYER1
  6
CENTER
 62
     7
100
AcDbLine
 10
166.119071
 20
74.209581
 30
0.0
 11
192.088419
 21
74.209581
 31
0.0
  0
LINE
  5
30A
330
6F
100
AcDbEntity
  8
CSLAYER1
  6
Continuous
 62
     7
100
AcDbLine
 10
75.837389
 20
33.709581
 30
0.0
 11
74.58449899999999
 21
55.421746
 31
0.0
  0
LINE
  5
30B
330
6F
100
AcDbEntity
  8
CSLAYER1
  6
Continuous
 62
     7
100
AcDbLine
 10
93.423414
 20
55.421746
 30
0.0
 11
92.170523
 21
33.709581
 31
0.0
  0
LINE
  5
30C
330
6F
100
AcDbEntity
  8
CSLAYER1
  6
Continuous
 62
     7
100
AcDbLine
 10
96.003956
 20
59.709581
 30
0.0
 11
97.503956
 21
60.250581
 31
0.0
  0
LINE
  5
30D
330
6F
100
AcDbEntity
  8
CSLAYER1
  6
Continuous
 62
     7
100
AcDbLine
 10
97.503956
 20
60.250581
 30
0.0
 11
98.80395599999999
 21
60.250581
 31
0.0
  0
LINE
  5
30E
330
6F
100
AcDbEntity
  8
CSLAYER1
  6
Continuous
 62
     7
100
AcDbLine
 10
98.80395599999999
 20
75.168581
 30
0.0
 11
97.503956
 21
75.168581
 31
0.0
  0
LINE
  5
30F
330
6F
100
AcDbEntity
  8
CSLAYER1
  6
Continuous
 62
     7
100
AcDbLine
 10
97.503956
 20
75.168581
 30
0.0
 11
96.003956
 21
75.709581
 31
0.0
  0
LINE
  5
310
330
6F
100
AcDbEntity
  8
CSLAYER1
  6
Continuous
 62
     7
100
AcDbLine
 10
140.364671
 20
60.250581
 30
0.0
 11
141.664671
 21
60.250581
 31
0.0
  0
LINE
  5
311
330
6F
100
AcDbEntity
  8
CSLAYER1
  6
Continuous
 62
     7
100
AcDbLine
 10
141.664671
 20
60.250581
 30
0.0
 11
143.164671
 21
59.709581
 31
0.0
  0
LINE
  5
312
330
6F
100
AcDbEntity
  8
CSLAYER1
  6
Continuous
 62
     7
100
AcDbLine
 10
145.745213
 20
55.421746
 30
0.0
 11
146.998104
 21
33.709581
 31
0.0
  0
LINE
  5
313
330
6F
100
AcDbEntity
  8
CSLAYER1
  6
Continuous
 62
     7
100
AcDbLine
 10
163.331238
 20
33.709581
 30
0.0
 11
164.584128
 21
55.421746
 31
0.0
  0
LINE
  5
314
330
6F
100
AcDbEntity
  8
CSLAYER1
  6
Continuous
 62
     7
100
AcDbLine
 10
143.164671
 20
75.709581
 30
0.0
 11
141.664671
 21
75.168581
 31
0.0
  0
LINE
  5
315
330
6F
100
AcDbEntity
  8
CSLAYER1
  6
Continuous
 62
     7
100
AcDbLine
 10
141.664671
 20
75.168581
 30
0.0
 11
140.364671
 21
75.168581
 31
0.0
  0
TEXT
  5
316
330
6F
100
AcDbEntity
  8
CSLAYER1
 62
     7
100
AcDbText
 10
78.797356
 20
73.865047
 30
0.0
 40
2.299999999999999
  1
W
 41
1.630434782608696
  7
JX_FONT
 72
     5
 11
81.29735600000001
 21
73.865047
 31
0.0
100
AcDbText
  0
TEXT
  5
317
330
6F
100
AcDbEntity
  8
CSLAYER1
 62
     7
100
AcDbText
 10
79.003952
 20
77.334831
 30
0.0
 40
3.5
  1
LPG
 41
1.071428571428571
  7
JX_FONT
 72
     5
 11
89.003952
 21
77.334831
 31
0.0
100
AcDbText
  0
TEXT
  5
318
330
6F
100
AcDbEntity
  8
CSLAYER1
 62
     7
100
AcDbText
 10
151.164658
 20
87.20957199999999
 30
0.0
 40
3.5
  1
V8
 41
1.371428571428571
  7
JX_FONT
 72
     5
 11
159.164658
 21
87.20957199999999
 31
0.0
100
AcDbText
  0
TEXT
  5
319
330
6F
100
AcDbEntity
  8
CSLAYER1
 62
     7
100
AcDbText
 10
86.97365600000001
 20
65.05057499999999
 30
0.0
 40
2.299999999999999
  1
M
 41
1.630434782608696
  7
JX_FONT
 72
     5
 11
89.47365600000001
 21
65.05057499999999
 31
0.0
100
AcDbText
  0
TEXT
  5
31A
330
6F
100
AcDbEntity
  8
CSLAYER1
 62
     7
100
AcDbText
 10
84.398178
 20
65.05222299999999
 30
0.0
 40
2.299999999999999
  1
0
 41
1.630434782608696
  7
JX_FONT
 72
     5
 11
86.898178
 21
65.05222299999999
 31
0.0
100
AcDbText
  0
TEXT
  5
31B
330
6F
100
AcDbEntity
  8
CSLAYER1
 62
     7
100
AcDbText
 10
76.58715100000001
 20
65.05222299999999
 30
0.0
 40
2.299999999999999
  1
T
 41
1.630434782608696
  7
JX_FONT
 72
     5
 11
79.08715100000001
 21
65.05222299999999
 31
0.0
100
AcDbText
  0
TEXT
  5
31C
330
6F
100
AcDbEntity
  8
CSLAYER1
 62
     7
100
AcDbText
 10
78.918808
 20
65.05222299999999
 30
0.0
 40
2.299999999999999
  1
P
 41
1.630434782608696
  7
JX_FONT
 72
     5
 11
81.418808
 21
65.05222299999999
 31
0.0
100
AcDbText
  0
TEXT
  5
31D
330
6F
100
AcDbEntity
  8
CSLAYER1
 62
     7
100
AcDbText
 10
81.677925
 20
65.05222299999999
 30
0.0
 40
2.299999999999999
  1
3
 41
1.630434782608696
  7
JX_FONT
 72
     5
 11
84.177925
 21
65.05222299999999
 31
0.0
100
AcDbText
  0
TEXT
  5
31E
330
6F
100
AcDbEntity
  8
CSLAYER1
 62
     7
100
AcDbText
 10
83.22670699999999
 20
65.10704799999999
 30
0.0
 40
2.299999999999999
  1
.
 41
1.630435
  7
JX_FONT
 72
     5
 11
85.72670699999999
 21
65.10704799999999
 31
0.0
100
AcDbText
  0
TEXT
  5
31F
330
6F
100
AcDbEntity
  8
CSLAYER1
 62
     7
100
AcDbText
 10
87.12429
 20
73.905528
 30
0.0
 40
2.299999999999999
  1
3
 41
1.630434782608696
  7
JX_FONT
 72
     5
 11
89.62429
 21
73.905528
 31
0.0
100
AcDbText
  0
TEXT
  5
320
330
6F
100
AcDbEntity
  8
CSLAYER1
 62
     7
100
AcDbText
 10
82.843742
 20
73.905528
 30
0.0
 40
2.299999999999999
  1
0
 41
1.630434782608696
  7
JX_FONT
 72
     5
 11
85.343742
 21
73.905528
 31
0.0
100
AcDbText
  0
TEXT
  5
321
330
6F
100
AcDbEntity
  8
CSLAYER1
 62
     7
100
AcDbText
 10
84.99662800000001
 20
73.905528
 30
0.0
 40
2.299999999999999
  1
.
 41
1.630435
  7
JX_FONT
 72
     5
 11
87.49662800000001
 21
73.905528
 31
0.0
100
AcDbText
  0
INSERT
  5
322
330
6F
100
AcDbEntity
  8
CSLAYER1
100
AcDbBlockReference
  2
BLKF0000
 10
0.0
 20
0.0
 30
0.0
  0
INSERT
  5
323
330
6F
100
AcDbEntity
  8
CSLAYER1
100
AcDbBlockReference
  2
BLKF0001
 10
0.0
 20
0.0
 30
0.0
  0
INSERT
  5
324
330
6F
100
AcDbEntity
  8
CSLAYER1
100
AcDbBlockReference
  2
BLKF0002
 10
0.0
 20
0.0
 30
0.0
  0
INSERT
  5
325
330
6F
100
AcDbEntity
  8
CSLAYER1
100
AcDbBlockReference
  2
BLKF0003
 10
0.0
 20
0.0
 30
0.0
  0
INSERT
  5
326
330
6F
100
AcDbEntity
  8
CSLAYER1
100
AcDbBlockReference
  2
BLKF0004
 10
0.0
 20
0.0
 30
0.0
  0
LINE
  5
327
330
6F
100
AcDbEntity
  8
CSLAYER1
  6
Continuous
 62
     7
100
AcDbLine
 10
79.003956
 20
89.17370799999998
 30
0.0
 11
84.00395600000001
 21
92.507671
 31
0.0
  0
LINE
  5
328
330
6F
100
AcDbEntity
  8
CSLAYER1
  6
Continuous
 62
     7
100
AcDbLine
 10
84.00395600000001
 20
92.507671
 30
0.0
 11
89.00395600000001
 21
89.17370799999998
 31
0.0
  0
LINE
  5
329
330
6F
100
AcDbEntity
  8
CSLAYER1
  6
Continuous
 62
     7
100
AcDbLine
 10
89.00395600000001
 20
89.17370799999998
 30
0.0
 11
84.00395600000001
 21
85.841004
 31
0.0
  0
LINE
  5
32A
330
6F
100
AcDbEntity
  8
CSLAYER1
  6
Continuous
 62
     7
100
AcDbLine
 10
84.00395600000001
 20
85.841004
 30
0.0
 11
79.003956
 21
89.17370799999998
 31
0.0
  0
INSERT
  5
32B
330
6F
100
AcDbEntity
  8
CSLAYER1
100
AcDbBlockReference
  2
BLKF0005
 10
0.0
 20
0.0
 30
0.0
  0
LINE
  5
32C
330
6F
100
AcDbEntity
  8
CSLAYER1
  6
Continuous
 62
     7
100
AcDbLine
 10
99.303956
 20
78.409581
 30
0.0
 11
100.303956
 21
78.409581
 31
0.0
  0
LINE
  5
32D
330
6F
100
AcDbEntity
  8
CSLAYER1
  6
Continuous
 62
     7
100
AcDbLine
 10
100.303956
 20
78.409581
 30
0.0
 11
100.303956
 21
57.00958100000001
 31
0.0
  0
LINE
  5
32E
330
6F
100
AcDbEntity
  8
CSLAYER1
  6
Continuous
 62
     7
100
AcDbLine
 10
100.303956
 20
57.00958100000001
 30
0.0
 11
99.303956
 21
57.00958100000001
 31
0.0
  0
LINE
  5
32F
330
6F
100
AcDbEntity
  8
CSLAYER1
  6
Continuous
 62
     7
100
AcDbLine
 10
99.303956
 20
57.00958100000001
 30
0.0
 11
99.303956
 21
78.409581
 31
0.0
  0
LINE
  5
330
330
6F
100
AcDbEntity
  8
CSLAYER1
  6
Continuous
 62
     7
100
AcDbLine
 10
100.303956
 20
78.209581
 30
0.0
 11
107.991564
 21
78.209581
 31
0.0
  0
ARC
  5
331
330
6F
100
AcDbEntity
  8
CSLAYER1
  6
Continuous
 62
     7
100
AcDbCircle
 10
107.991564
 20
74.709581
 30
0.0
 40
3.5
100
AcDbArc
 50
40.0
 51
90.0
  0
LINE
  5
332
330
6F
100
AcDbEntity
  8
CSLAYER1
  6
Continuous
 62
     7
100
AcDbLine
 10
110.672719
 20
76.95933700000001
 30
0.0
 11
112.485112
 21
74.799412
 31
0.0
  0
ARC
  5
333
330
6F
100
AcDbEntity
  8
CSLAYER1
  6
Continuous
 62
     7
100
AcDbCircle
 10
109.803956
 20
72.549655
 30
0.0
 40
3.5
100
AcDbArc
 50
0.0
 51
40.0
  0
LINE
  5
334
330
6F
100
AcDbEntity
  8
CSLAYER1
  6
Continuous
 62
     7
100
AcDbLine
 10
113.303956
 20
72.549655
 30
0.0
 11
113.303956
 21
62.869506
 31
0.0
  0
ARC
  5
335
330
6F
100
AcDbEntity
  8
CSLAYER1
  6
Continuous
 62
     7
100
AcDbCircle
 10
109.803956
 20
62.869506
 30
0.0
 40
3.5
100
AcDbArc
 50
320.0
 51
0.0
  0
LINE
  5
336
330
6F
100
AcDbEntity
  8
CSLAYER1
  6
Continuous
 62
     7
100
AcDbLine
 10
112.485112
 20
60.61975
 30
0.0
 11
110.672719
 21
58.459824
 31
0.0
  0
ARC
  5
337
330
6F
100
AcDbEntity
  8
CSLAYER1
  6
Continuous
 62
     7
100
AcDbCircle
 10
107.991564
 20
60.70958100000001
 30
0.0
 40
3.5
100
AcDbArc
 50
270.0
 51
320.0
  0
LINE
  5
338
330
6F
100
AcDbEntity
  8
CSLAYER1
  6
Continuous
 62
     7
100
AcDbLine
 10
107.991564
 20
57.209581
 30
0.0
 11
100.303956
 21
57.209581
 31
0.0
  0
ENDSEC
  0
SECTION
  2
OBJECTS
  0
DICTIONARY
  5
C
330
0
100
AcDbDictionary
281
     1
  3
ACAD_CIP_PREVIOUS_PRODUCT_INFO
350
33A
  3
ACAD_COLOR
350
62
  3
ACAD_DETAILVIEWSTYLE
350
69
  3
ACAD_FIELDLIST
350
3AA
  3
ACAD_GROUP
350
D
  3
ACAD_LAYOUT
350
61
  3
ACAD_MATERIAL
350
10
  3
ACAD_MLEADERSTYLE
350
65
  3
ACAD_MLINESTYLE
350
5E
  3
ACAD_PLOTSETTINGS
350
60
  3
ACAD_PLOTSTYLENAME
350
E
  3
ACAD_SCALELIST
350
42
  3
ACAD_SECTIONVIEWSTYLE
350
67
  3
ACAD_TABLESTYLE
350
63
  3
ACAD_VISUALSTYLE
350
29
  3
ACDB_RECOMPOSE_DATA
350
3F3
  3
AcDbVariableDictionary
350
3EA
  3
AcmDictionary
350
365
  3
AMG
350
33B
  3
AMGSNAPSETTINGS
350
3C1
  0
DICTIONARY
  5
3C8
330
54
100
AcDbDictionary
280
     1
281
     1
  3
ADSK_XREC_LAYER_RECONCILED
360
3C9
  0
DICTIONARY
  5
3CA
330
73
100
AcDbDictionary
280
     1
281
     1
  3
ADSK_XREC_LAYER_RECONCILED
360
3CB
  0
DICTIONARY
  5
3CC
330
7C
100
AcDbDictionary
280
     1
281
     1
  3
ADSK_XREC_LAYER_RECONCILED
360
3CD
  0
DICTIONARY
  5
3CE
330
7D
100
AcDbDictionary
280
     1
281
     1
  3
ADSK_XREC_LAYER_RECONCILED
360
3CF
  0
DICTIONARY
  5
3D0
330
7E
100
AcDbDictionary
280
     1
281
     1
  3
ADSK_XREC_LAYER_RECONCILED
360
3D1
  0
DICTIONARY
  5
3D2
330
7F
100
AcDbDictionary
280
     1
281
     1
  3
ADSK_XREC_LAYER_RECONCILED
360
3D3
  0
DICTIONARY
  5
3D4
330
80
100
AcDbDictionary
280
     1
281
     1
  3
ADSK_XREC_LAYER_RECONCILED
360
3D5
  0
DICTIONARY
  5
3D6
330
81
100
AcDbDictionary
280
     1
281
     1
  3
ADSK_XREC_LAYER_RECONCILED
360
3D7
  0
DICTIONARY
  5
3D8
330
82
100
AcDbDictionary
280
     1
281
     1
  3
ADSK_XREC_LAYER_RECONCILED
360
3D9
  0
DICTIONARY
  5
3DA
330
83
100
AcDbDictionary
280
     1
281
     1
  3
ADSK_XREC_LAYER_RECONCILED
360
3DB
  0
DICTIONARY
  5
3DC
330
84
100
AcDbDictionary
280
     1
281
     1
  3
ADSK_XREC_LAYER_RECONCILED
360
3DD
  0
DICTIONARY
  5
3DE
330
85
100
AcDbDictionary
280
     1
281
     1
  3
ADSK_XREC_LAYER_RECONCILED
360
3DF
  0
DICTIONARY
  5
3E0
330
86
100
AcDbDictionary
280
     1
281
     1
  3
ADSK_XREC_LAYER_RECONCILED
360
3E1
  0
DICTIONARY
  5
3E2
330
87
100
AcDbDictionary
280
     1
281
     1
  3
ADSK_XREC_LAYER_RECONCILED
360
3E3
  0
DICTIONARY
  5
3E4
330
88
100
AcDbDictionary
280
     1
281
     1
  3
ADSK_XREC_LAYER_RECONCILED
360
3E5
  0
DICTIONARY
  5
3E6
330
89
100
AcDbDictionary
280
     1
281
     1
  3
ADSK_XREC_LAYER_RECONCILED
360
3E7
  0
DICTIONARY
  5
3E8
330
8A
100
AcDbDictionary
280
     1
281
     1
  3
ADSK_XREC_LAYER_RECONCILED
360
3E9
  0
XRECORD
  5
33A
102
{ACAD_REACTORS
330
C
102
}
330
C
100
AcDbXrecord
280
     1
300
AMECH_PP
300
2017
300
86627AMECH_PP_2017_0F
  0
DICTIONARY
  5
62
102
{ACAD_REACTORS
330
C
102
}
330
C
100
AcDbDictionary
281
     1
  0
DICTIONARY
  5
69
102
{ACAD_REACTORS
330
C
102
}
330
C
100
AcDbDictionary
281
     1
  3
Imperial24
350
6A
  0
FIELDLIST
  5
3AA
102
{ACAD_REACTORS
330
C
102
}
330
C
100
AcDbIdSet
 90
        8
330
3A8
330
3A9
330
3AB
330
3AC
330
3B0
330
3B1
330
3B2
330
3B3
100
AcDbFieldList
  0
DICTIONARY
  5
D
102
{ACAD_REACTORS
330
C
102
}
330
C
100
AcDbDictionary
281
     1
  0
DICTIONARY
  5
61
102
{ACAD_REACTORS
330
C
102
}
330
C
100
AcDbDictionary
281
     1
  3
Model
350
72
  3
レイアウト1
350
6E
  0
DICTIONARY
  5
10
102
{ACAD_REACTORS
330
C
102
}
330
C
100
AcDbDictionary
281
     1
  3
ByBlock
350
19
  3
ByLayer
350
11
  3
Global
350
21
  0
DICTIONARY
  5
65
102
{ACAD_REACTORS
330
C
102
}
330
C
100
AcDbDictionary
281
     1
  3
Standard
350
66
  0
DICTIONARY
  5
5E
102
{ACAD_REACTORS
330
C
102
}
330
C
100
AcDbDictionary
281
     1
  3
Standard
350
5F
  0
DICTIONARY
  5
60
102
{ACAD_REACTORS
330
C
102
}
330
C
100
AcDbDictionary
281
     1
  0
ACDBDICTIONARYWDFLT
  5
E
102
{ACAD_REACTORS
330
C
102
}
330
C
100
AcDbDictionary
281
     1
  3
Normal
350
F
100
AcDbDictionaryWithDefault
340
F
  0
DICTIONARY
  5
42
102
{ACAD_REACTORS
330
C
102
}
330
C
100
AcDbDictionary
281
     1
  3
A0
350
43
  3
A1
350
44
  3
A2
350
45
  3
A3
350
46
  3
A4
350
47
  3
A5
350
48
  3
A6
350
49
  3
A7
350
4A
  3
A8
350
4B
  3
A9
350
4C
  3
B0
350
4D
  3
B1
350
4E
  3
B2
350
4F
  3
B3
350
50
  3
B4
350
51
  3
B5
350
52
  3
B6
350
53
  0
DICTIONARY
  5
67
102
{ACAD_REACTORS
330
C
102
}
330
C
100
AcDbDictionary
281
     1
  3
Imperial24
350
68
  0
DICTIONARY
  5
63
102
{ACAD_REACTORS
330
C
102
}
330
C
100
AcDbDictionary
281
     1
  3
Standard
350
64
  0
DICTIONARY
  5
29
102
{ACAD_REACTORS
330
C
102
}
330
C
100
AcDbDictionary
281
     1
  3
2dWireframe
350
2F
  3
Basic
350
2E
  3
Brighten
350
35
  3
ColorChange
350
39
  3
Conceptual
350
32
  3
Dim
350
34
  3
EdgeColorOff
350
41
  3
Facepattern
350
38
  3
Flat
350
2A
  3
FlatWithEdges
350
2B
  3
Gouraud
350
2C
  3
GouraudWithEdges
350
2D
  3
Hidden
350
31
  3
JitterOff
350
3F
  3
Linepattern
350
37
  3
OverhangOff
350
40
  3
Realistic
350
33
  3
Shaded
350
3E
  3
Shaded with edges
350
3D
  3
Shades of Gray
350
3A
  3
Sketchy
350
3B
  3
Thicken
350
36
  3
Wireframe
350
30
  3
X-Ray
350
3C
  0
XRECORD
  5
3F3
102
{ACAD_REACTORS
330
C
102
}
330
C
100
AcDbXrecord
280
     1
 90
        1
330
64
  0
DICTIONARY
  5
3EA
102
{ACAD_REACTORS
330
C
102
}
330
C
100
AcDbDictionary
281
     1
  3
CANNOSCALE
350
3EF
  3
CMLEADERSTYLE
350
3EC
  3
CTABLESTYLE
350
3EB
  3
CVIEWDETAILSTYLE
350
3ED
  3
CVIEWSECTIONSTYLE
350
3EE
  3
XCLIPFRAME
350
3F0
  0
DICTIONARY
  5
365
102
{ACAD_REACTORS
330
C
102
}
330
C
100
AcDbDictionary
281
     1
  3
AcmStdDictionary
350
36E
  0
DICTIONARY
  5
33B
102
{ACAD_REACTORS
330
C
102
}
330
C
100
AcDbDictionary
281
     1
  0
DICTIONARY
  5
3C1
102
{ACAD_REACTORS
330
C
102
}
330
C
100
AcDbDictionary
281
     1
  0
XRECORD
  5
3C9
102
{ACAD_REACTORS
330
3C8
102
}
330
3C8
100
AcDbXrecord
280
     1
290
     1
  0
XRECORD
  5
3CB
102
{ACAD_REACTORS
330
3CA
102
}
330
3CA
100
AcDbXrecord
280
     1
290
     1
  0
XRECORD
  5
3CD
102
{ACAD_REACTORS
330
3CC
102
}
330
3CC
100
AcDbXrecord
280
     1
290
     1
  0
XRECORD
  5
3CF
102
{ACAD_REACTORS
330
3CE
102
}
330
3CE
100
AcDbXrecord
280
     1
290
     1
  0
XRECORD
  5
3D1
102
{ACAD_REACTORS
330
3D0
102
}
330
3D0
100
AcDbXrecord
280
     1
290
     1
  0
XRECORD
  5
3D3
102
{ACAD_REACTORS
330
3D2
102
}
330
3D2
100
AcDbXrecord
280
     1
290
     1
  0
XRECORD
  5
3D5
102
{ACAD_REACTORS
330
3D4
102
}
330
3D4
100
AcDbXrecord
280
     1
290
     1
  0
XRECORD
  5
3D7
102
{ACAD_REACTORS
330
3D6
102
}
330
3D6
100
AcDbXrecord
280
     1
290
     1
  0
XRECORD
  5
3D9
102
{ACAD_REACTORS
330
3D8
102
}
330
3D8
100
AcDbXrecord
280
     1
290
     1
  0
XRECORD
  5
3DB
102
{ACAD_REACTORS
330
3DA
102
}
330
3DA
100
AcDbXrecord
280
     1
290
     1
  0
XRECORD
  5
3DD
102
{ACAD_REACTORS
330
3DC
102
}
330
3DC
100
AcDbXrecord
280
     1
290
     1
  0
XRECORD
  5
3DF
102
{ACAD_REACTORS
330
3DE
102
}
330
3DE
100
AcDbXrecord
280
     1
290
     1
  0
XRECORD
  5
3E1
102
{ACAD_REACTORS
330
3E0
102
}
330
3E0
100
AcDbXrecord
280
     1
290
     1
  0
XRECORD
  5
3E3
102
{ACAD_REACTORS
330
3E2
102
}
330
3E2
100
AcDbXrecord
280
     1
290
     1
  0
XRECORD
  5
3E5
102
{ACAD_REACTORS
330
3E4
102
}
330
3E4
100
AcDbXrecord
280
     1
290
     1
  0
XRECORD
  5
3E7
102
{ACAD_REACTORS
330
3E6
102
}
330
3E6
100
AcDbXrecord
280
     1
290
     1
  0
XRECORD
  5
3E9
102
{ACAD_REACTORS
330
3E8
102
}
330
3E8
100
AcDbXrecord
280
     1
290
     1
  0
ACDBDETAILVIEWSTYLE
  5
6A
102
{ACAD_XDICTIONARY
360
42B
102
}
102
{ACAD_REACTORS
330
69
330
39B
102
}
330
69
100
AcDbModelDocViewStyle
 70
     0
  3
Imperial24
290
     0
100
AcDbDetailViewStyle
 70
     0
 71
     0
 90
        3
 71
     1
340
55
 62
   256
 40
0.24
340
0
 62
   256
 40
0.24
300

 40
0.36
280
     3
 71
     2
340
5C
 90
       25
 62
   256
 71
     3
340
55
 62
   256
 40
0.24
 90
        1
 40
0.75
 90
        1
300
%<\AcVar ViewType \f "%tc1">% %<\AcVar ViewDetailId>%\PSCALE %<\AcVar ViewScale \f "%sn">%
 71
     4
340
5C
 90
       25
 62
   256
340
5C
 90
       25
 62
   256
280
     0
  0
LAYOUT
  5
72
102
{ACAD_REACTORS
330
61
102
}
330
61
100
AcDbPlotSettings
  1

  2
RICOH Black&White (RPCS)
  4

  6

 40
0.0
 41
0.0
 42
0.0
 43
0.0
 44
0.0
 45
0.0
 46
0.0
 47
0.0
 48
0.0
 49
0.0
140
0.0
141
0.0
142
1.0
143
1.0
 70
  1712
 72
     0
 73
     0
 74
     0
  7

 75
     0
147
1.0
 76
     0
 77
     2
 78
   300
148
0.0
149
0.0
100
AcDbLayout
  1
Model
 70
     1
 71
     0
 10
0.0
 20
0.0
 11
12.0
 21
9.0
 12
0.0
 22
0.0
 32
0.0
 14
0.0
 24
0.0
 34
0.0
 15
0.0
 25
0.0
 35
0.0
146
0.0
 13
0.0
 23
0.0
 33
0.0
 16
1.0
 26
0.0
 36
0.0
 17
0.0
 27
1.0
 37
0.0
 76
     0
330
6F
331
8F
  0
LAYOUT
  5
6E
102
{ACAD_REACTORS
330
61
102
}
330
61
100
AcDbPlotSettings
  1

  2
RICOH Black&White (RPCS)
  4

  6

 40
0.0
 41
0.0
 42
0.0
 43
0.0
 44
0.0
 45
0.0
 46
0.0
 47
0.0
 48
0.0
 49
0.0
140
0.0
141
0.0
142
1.0
143
1.0
 70
   688
 72
     0
 73
     0
 74
     5
  7

 75
    16
147
1.0
 76
     0
 77
     2
 78
   300
148
0.0
149
0.0
100
AcDbLayout
  1
レイアウト1
 70
     1
 71
     1
 10
0.0
 20
0.0
 11
12.0
 21
9.0
 12
0.0
 22
0.0
 32
0.0
 14
1.000000000000000E+20
 24
1.000000000000000E+20
 34
1.000000000000000E+20
 15
-1.000000000000000E+20
 25
-1.000000000000000E+20
 35
-1.000000000000000E+20
146
0.0
 13
0.0
 23
0.0
 33
0.0
 16
1.0
 26
0.0
 36
0.0
 17
0.0
 27
1.0
 37
0.0
 76
     0
330
6B
  0
MATERIAL
  5
19
102
{ACAD_XDICTIONARY
360
1A
102
}
102
{ACAD_REACTORS
330
10
102
}
330
10
100
AcDbMaterial
  1
ByBlock
 72
     0
 43
0.0208333333333333
 43
0.0
 43
0.0
 43
0.0
 43
0.0
 43
0.0208333333333333
 43
0.0
 43
0.0
 43
0.0
 43
0.0
 43
1.0
 43
0.0
 43
0.0
 43
0.0
 43
0.0
 43
1.0
 77
     0
 47
0.0208333333333333
 47
0.0
 47
0.0
 47
0.0
 47
0.0
 47
0.0208333333333333
 47
0.0
 47
0.0
 47
0.0
 47
0.0
 47
1.0
 47
0.0
 47
0.0
 47
0.0
 47
0.0
 47
1.0
171
     0
 49
0.0208333333333333
 49
0.0
 49
0.0
 49
0.0
 49
0.0
 49
0.0208333333333333
 49
0.0
 49
0.0
 49
0.0
 49
0.0
 49
1.0
 49
0.0
 49
0.0
 49
0.0
 49
0.0
 49
1.0
175
     0
142
0.0208333333333333
142
0.0
142
0.0
142
0.0
142
0.0
142
0.0208333333333333
142
0.0
142
0.0
142
0.0
142
0.0
142
1.0
142
0.0
142
0.0
142
0.0
142
0.0
142
1.0
179
     0
144
0.0208333333333333
144
0.0
144
0.0
144
0.0
144
0.0
144
0.0208333333333333
144
0.0
144
0.0
144
0.0
144
0.0
144
1.0
144
0.0
144
0.0
144
0.0
144
0.0
144
1.0
147
0.0208333333333333
147
0.0
147
0.0
147
0.0
147
0.0
147
0.0208333333333333
147
0.0
147
0.0
147
0.0
147
0.0
147
1.0
147
0.0
147
0.0
147
0.0
147
0.0
147
1.0
  0
MATERIAL
  5
11
102
{ACAD_XDICTIONARY
360
12
102
}
102
{ACAD_REACTORS
330
10
102
}
330
10
100
AcDbMaterial
  1
ByLayer
 72
     0
 43
0.0208333333333333
 43
0.0
 43
0.0
 43
0.0
 43
0.0
 43
0.0208333333333333
 43
0.0
 43
0.0
 43
0.0
 43
0.0
 43
1.0
 43
0.0
 43
0.0
 43
0.0
 43
0.0
 43
1.0
 77
     0
 47
0.0208333333333333
 47
0.0
 47
0.0
 47
0.0
 47
0.0
 47
0.0208333333333333
 47
0.0
 47
0.0
 47
0.0
 47
0.0
 47
1.0
 47
0.0
 47
0.0
 47
0.0
 47
0.0
 47
1.0
171
     0
 49
0.0208333333333333
 49
0.0
 49
0.0
 49
0.0
 49
0.0
 49
0.0208333333333333
 49
0.0
 49
0.0
 49
0.0
 49
0.0
 49
1.0
 49
0.0
 49
0.0
 49
0.0
 49
0.0
 49
1.0
175
     0
142
0.0208333333333333
142
0.0
142
0.0
142
0.0
142
0.0
142
0.0208333333333333
142
0.0
142
0.0
142
0.0
142
0.0
142
1.0
142
0.0
142
0.0
142
0.0
142
0.0
142
1.0
179
     0
144
0.0208333333333333
144
0.0
144
0.0
144
0.0
144
0.0
144
0.0208333333333333
144
0.0
144
0.0
144
0.0
144
0.0
144
1.0
144
0.0
144
0.0
144
0.0
144
0.0
144
1.0
147
0.0208333333333333
147
0.0
147
0.0
147
0.0
147
0.0
147
0.0208333333333333
147
0.0
147
0.0
147
0.0
147
0.0
147
1.0
147
0.0
147
0.0
147
0.0
147
0.0
147
1.0
  0
MATERIAL
  5
21
102
{ACAD_XDICTIONARY
360
22
102
}
102
{ACAD_REACTORS
330
10
102
}
330
10
100
AcDbMaterial
  1
Global
 72
     0
 43
0.0208333333333333
 43
0.0
 43
0.0
 43
0.0
 43
0.0
 43
0.0208333333333333
 43
0.0
 43
0.0
 43
0.0
 43
0.0
 43
1.0
 43
0.0
 43
0.0
 43
0.0
 43
0.0
 43
1.0
 77
     0
 47
0.0208333333333333
 47
0.0
 47
0.0
 47
0.0
 47
0.0
 47
0.0208333333333333
 47
0.0
 47
0.0
 47
0.0
 47
0.0
 47
1.0
 47
0.0
 47
0.0
 47
0.0
 47
0.0
 47
1.0
171
     0
 49
0.0208333333333333
 49
0.0
 49
0.0
 49
0.0
 49
0.0
 49
0.0208333333333333
 49
0.0
 49
0.0
 49
0.0
 49
0.0
 49
1.0
 49
0.0
 49
0.0
 49
0.0
 49
0.0
 49
1.0
175
     0
142
0.0208333333333333
142
0.0
142
0.0
142
0.0
142
0.0
142
0.0208333333333333
142
0.0
142
0.0
142
0.0
142
0.0
142
1.0
142
0.0
142
0.0
142
0.0
142
0.0
142
1.0
179
     0
144
0.0208333333333333
144
0.0
144
0.0
144
0.0
144
0.0
144
0.0208333333333333
144
0.0
144
0.0
144
0.0
144
0.0
144
1.0
144
0.0
144
0.0
144
0.0
144
0.0
144
1.0
147
0.0208333333333333
147
0.0
147
0.0
147
0.0
147
0.0
147
0.0208333333333333
147
0.0
147
0.0
147
0.0
147
0.0
147
1.0
147
0.0
147
0.0
147
0.0
147
0.0
147
1.0
  0
MLEADERSTYLE
  5
66
102
{ACAD_REACTORS
330
65
102
}
330
65
100
AcDbMLeaderStyle
170
     2
171
     1
172
     0
 90
        2
 40
0.0
 41
0.0
173
     1
 91
-1056964608
340
5A
 92
       -2
290
     1
 42
0.09
291
     1
 43
0.36
  3
Standard
 44
0.18
300

342
55
174
     1
178
     6
175
     1
176
     0
 93
-1056964608
 45
0.18
292
     0
297
     0
 46
0.18
 94
-1056964608
 47
1.0
 49
1.0
140
1.0
293
     1
141
0.0
294
     1
177
     0
142
1.0
295
     0
296
     0
143
0.125
1001
ACAD_MLEADERVER
1070
     2
  0
MLINESTYLE
  5
5F
102
{ACAD_REACTORS
330
5E
102
}
330
5E
100
AcDbMlineStyle
  2
STANDARD
 70
     0
  3

 62
   256
 51
90.0
 52
90.0
 71
     2
 49
0.5
 62
   256
  6
BYLAYER
 49
-0.5
 62
   256
  6
BYLAYER
  0
ACDBPLACEHOLDER
  5
F
102
{ACAD_REACTORS
330
E
102
}
330
E
  0
SCALE
  5
43
102
{ACAD_REACTORS
330
42
102
}
330
42
100
AcDbScale
 70
     0
300
1:1
140
1.0
141
1.0
290
     1
  0
SCALE
  5
44
102
{ACAD_REACTORS
330
42
102
}
330
42
100
AcDbScale
 70
     0
300
1/128" = 1'-0"
140
0.0078125
141
12.0
290
     0
  0
SCALE
  5
45
102
{ACAD_REACTORS
330
42
102
}
330
42
100
AcDbScale
 70
     0
300
1/64" = 1'-0"
140
0.015625
141
12.0
290
     0
  0
SCALE
  5
46
102
{ACAD_REACTORS
330
42
102
}
330
42
100
AcDbScale
 70
     0
300
1/32" = 1'-0"
140
0.03125
141
12.0
290
     0
  0
SCALE
  5
47
102
{ACAD_REACTORS
330
42
102
}
330
42
100
AcDbScale
 70
     0
300
1/16" = 1'-0"
140
0.0625
141
12.0
290
     0
  0
SCALE
  5
48
102
{ACAD_REACTORS
330
42
102
}
330
42
100
AcDbScale
 70
     0
300
3/32" = 1'-0"
140
0.09375
141
12.0
290
     0
  0
SCALE
  5
49
102
{ACAD_REACTORS
330
42
102
}
330
42
100
AcDbScale
 70
     0
300
1/8" = 1'-0"
140
0.125
141
12.0
290
     0
  0
SCALE
  5
4A
102
{ACAD_REACTORS
330
42
102
}
330
42
100
AcDbScale
 70
     0
300
3/16" = 1'-0"
140
0.1875
141
12.0
290
     0
  0
SCALE
  5
4B
102
{ACAD_REACTORS
330
42
102
}
330
42
100
AcDbScale
 70
     0
300
1/4" = 1'-0"
140
0.25
141
12.0
290
     0
  0
SCALE
  5
4C
102
{ACAD_REACTORS
330
42
102
}
330
42
100
AcDbScale
 70
     0
300
3/8" = 1'-0"
140
0.375
141
12.0
290
     0
  0
SCALE
  5
4D
102
{ACAD_REACTORS
330
42
102
}
330
42
100
AcDbScale
 70
     0
300
1/2" = 1'-0"
140
0.5
141
12.0
290
     0
  0
SCALE
  5
4E
102
{ACAD_REACTORS
330
42
102
}
330
42
100
AcDbScale
 70
     0
300
3/4" = 1'-0"
140
0.75
141
12.0
290
     0
  0
SCALE
  5
4F
102
{ACAD_REACTORS
330
42
102
}
330
42
100
AcDbScale
 70
     0
300
1" = 1'-0"
140
1.0
141
12.0
290
     0
  0
SCALE
  5
50
102
{ACAD_REACTORS
330
42
102
}
330
42
100
AcDbScale
 70
     0
300
1-1/2" = 1'-0"
140
1.5
141
12.0
290
     0
  0
SCALE
  5
51
102
{ACAD_REACTORS
330
42
102
}
330
42
100
AcDbScale
 70
     0
300
3" = 1'-0"
140
3.0
141
12.0
290
     0
  0
SCALE
  5
52
102
{ACAD_REACTORS
330
42
102
}
330
42
100
AcDbScale
 70
     0
300
6" = 1'-0"
140
6.0
141
12.0
290
     0
  0
SCALE
  5
53
102
{ACAD_REACTORS
330
42
102
}
330
42
100
AcDbScale
 70
     0
300
1'-0" = 1'-0"
140
12.0
141
12.0
290
     0
  0
ACDBSECTIONVIEWSTYLE
  5
68
102
{ACAD_XDICTIONARY
360
429
102
}
102
{ACAD_REACTORS
330
67
330
39A
102
}
330
67
100
AcDbModelDocViewStyle
 70
     0
  3
Imperial24
290
     0
100
AcDbSectionViewStyle
 70
     0
 71
     0
 90
       78
 71
     1
340
55
 62
   256
 40
0.24
340
0
340
0
 62
   256
 40
0.24
300
I, O, Q, S, X, Z
 40
0.48
 90
        3
 40
0.18
 90
        1
 71
     2
340
5C
 90
       25
 62
   256
340
5C
 90
       50
 62
   256
 40
0.24
 40
0.0
 40
0.24
 71
     3
340
55
 62
   256
 40
0.24
 90
        1
 40
0.75
 90
        1
300
%<\AcVar ViewType \f "%tc1">% %<\AcVar ViewSectionStartId>%-%<\AcVar ViewSectionEndId>%\PSCALE %<\AcVar ViewScale \f "%sn">%
 71
     4
 62
   256
 62
   257
300
ANSI31
 40
1.0
 90
        0
290
     0
290
     0
 90
        6
 40
0.0
 40
1.570796326794896
 40
0.2617993877991494
 40
1.308996938995747
 40
-0.2617993877991494
 40
1.832595714594046
  0
TABLESTYLE
  5
64
102
{ACAD_XDICTIONARY
360
3F1
102
}
102
{ACAD_REACTORS
330
63
102
}
330
63
100
AcDbTableStyle
  3
Standard
 70
     0
 71
     0
 40
0.06
 41
0.06
280
     0
281
     0
  7
Standard
140
0.18
170
     2
 62
     0
 63
     7
283
     0
274
    -2
284
     1
 64
     0
275
    -2
285
     1
 65
     0
276
    -2
286
     1
 66
     0
277
    -2
287
     1
 67
     0
278
    -2
288
     1
 68
     0
279
    -2
289
     1
 69
     0
  7
Standard
140
0.25
170
     5
 62
     0
 63
     7
283
     0
274
    -2
284
     1
 64
     0
275
    -2
285
     1
 65
     0
276
    -2
286
     1
 66
     0
277
    -2
287
     1
 67
     0
278
    -2
288
     1
 68
     0
279
    -2
289
     1
 69
     0
  7
Standard
140
0.18
170
     5
 62
     0
 63
     7
283
     0
274
    -2
284
     1
 64
     0
275
    -2
285
     1
 65
     0
276
    -2
286
     1
 66
     0
277
    -2
287
     1
 67
     0
278
    -2
288
     1
 68
     0
279
    -2
289
     1
 69
     0
  0
VISUALSTYLE
  5
2F
102
{ACAD_XDICTIONARY
360
401
102
}
102
{ACAD_REACTORS
330
29
102
}
330
29
100
AcDbVisualStyle
  2
2dWireframe
 70
     4
 71
     0
 72
     2
 73
     0
 90
        0
 40
-0.6
 41
-30.0
 62
     5
 63
     7
421
 16777215
 74
     1
 91
        4
 64
     7
 65
   257
 75
     1
175
     1
 42
1.0
 92
        0
 66
   257
 43
1.0
 76
     1
 77
     6
 78
     2
 67
     7
 79
     5
170
     0
171
     0
290
     0
174
     0
 93
        1
 44
0.0
173
     0
291
     0
 45
0.0
1001
ACAD
1000
AcDbSavedByObjectVersion
1070
     0
  0
VISUALSTYLE
  5
2E
102
{ACAD_XDICTIONARY
360
3FF
102
}
102
{ACAD_REACTORS
330
29
102
}
330
29
100
AcDbVisualStyle
  2
Basic
 70
     7
 71
     1
 72
     0
 73
     1
 90
        0
 40
-0.6
 41
-30.0
 62
     5
 63
     7
421
 16777215
 74
     0
 91
        4
 64
     7
 65
   257
 75
     1
175
     1
 42
1.0
 92
        8
 66
     7
 43
1.0
 76
     1
 77
     6
 78
     2
 67
     7
 79
     5
170
     0
171
     0
290
     0
174
     0
 93
        1
 44
0.0
173
     0
291
     1
 45
0.0
1001
ACAD
1000
AcDbSavedByObjectVersion
1070
     0
  0
VISUALSTYLE
  5
35
102
{ACAD_XDICTIONARY
360
40D
102
}
102
{ACAD_REACTORS
330
29
102
}
330
29
100
AcDbVisualStyle
  2
Brighten
 70
    12
 71
     2
 72
     2
 73
     0
 90
        0
 40
-0.6
 41
-30.0
 62
     5
 63
     7
421
 16777215
 74
     1
 91
        4
 64
     7
 65
   257
 75
     1
175
     1
 42
1.0
 92
        8
 66
     7
 43
1.0
 76
     1
 77
     6
 78
     2
 67
     7
 79
     5
170
     0
171
     0
290
     0
174
     0
 93
        1
 44
50.0
173
     0
291
     1
 45
0.0
1001
ACAD
1000
AcDbSavedByObjectVersion
1070
     0
  0
VISUALSTYLE
  5
39
102
{ACAD_XDICTIONARY
360
415
102
}
102
{ACAD_REACTORS
330
29
102
}
330
29
100
AcDbVisualStyle
  2
ColorChange
 70
    16
 71
     2
 72
     2
 73
     3
 90
        0
 40
-0.6
 41
-30.0
 62
     5
 63
     8
421
  8421504
 74
     1
 91
        4
 64
     7
 65
   257
 75
     1
175
     1
 42
1.0
 92
        8
 66
     8
424
  8421504
 43
1.0
 76
     1
 77
     6
 78
     2
 67
     7
 79
     5
170
     0
171
     0
290
     0
174
     0
 93
        1
 44
0.0
173
     0
291
     1
 45
0.0
1001
ACAD
1000
AcDbSavedByObjectVersion
1070
     0
  0
VISUALSTYLE
  5
32
102
{ACAD_XDICTIONARY
360
407
102
}
102
{ACAD_REACTORS
330
29
102
}
330
29
100
AcDbVisualStyle
  2
Conceptual
 70
     9
 71
     3
 72
     2
 73
     0
 90
        0
 40
-0.6
 41
-30.0
 62
     5
 63
     7
421
 16777215
 74
     2
 91
        2
 64
     7
 65
   257
 75
     1
175
     1
 42
179.0
 92
        8
 66
     7
 43
1.0
 76
     1
 77
     6
 78
     2
 67
     7
 79
     3
170
     0
171
     0
290
     0
174
     0
 93
        1
 44
0.0
173
     0
291
     0
 45
0.0
1001
ACAD
1000
AcDbSavedByObjectVersion
1070
     0
  0
VISUALSTYLE
  5
34
102
{ACAD_XDICTIONARY
360
40B
102
}
102
{ACAD_REACTORS
330
29
102
}
330
29
100
AcDbVisualStyle
  2
Dim
 70
    11
 71
     2
 72
     2
 73
     0
 90
        0
 40
-0.6
 41
-30.0
 62
     5
 63
     7
421
 16777215
 74
     1
 91
        4
 64
     7
 65
   257
 75
     1
175
     1
 42
1.0
 92
        8
 66
     7
 43
1.0
 76
     1
 77
     6
 78
     2
 67
     7
 79
     5
170
     0
171
     0
290
     0
174
     0
 93
        1
 44
-50.0
173
     0
291
     1
 45
0.0
1001
ACAD
1000
AcDbSavedByObjectVersion
1070
     0
  0
VISUALSTYLE
  5
41
102
{ACAD_XDICTIONARY
360
425
102
}
102
{ACAD_REACTORS
330
29
102
}
330
29
100
AcDbVisualStyle
  2
EdgeColorOff
 70
    22
 71
     2
 72
     2
 73
     0
 90
        0
 40
-0.6
 41
-30.0
 62
     5
 63
     7
421
 16777215
 74
     1
 91
        4
 64
     7
 65
   257
 75
     1
175
     1
 42
1.0
 92
        8
 66
     7
 43
1.0
 76
     1
 77
     6
 78
     2
 67
     7
 79
     5
170
     0
171
     0
290
     0
174
     0
 93
        1
 44
0.0
173
     0
291
     1
 45
0.0
1001
ACAD
1000
AcDbSavedByObjectVersion
1070
     0
  0
VISUALSTYLE
  5
38
102
{ACAD_XDICTIONARY
360
413
102
}
102
{ACAD_REACTORS
330
29
102
}
330
29
100
AcDbVisualStyle
  2
Facepattern
 70
    15
 71
     2
 72
     2
 73
     0
 90
        0
 40
-0.6
 41
-30.0
 62
     5
 63
     7
421
 16777215
 74
     1
 91
        4
 64
     7
 65
   257
 75
     1
175
     1
 42
1.0
 92
        8
 66
     7
 43
1.0
 76
     1
 77
     6
 78
     2
 67
     7
 79
     5
170
     0
171
     0
290
     0
174
     0
 93
        1
 44
0.0
173
     0
291
     1
 45
0.0
1001
ACAD
1000
AcDbSavedByObjectVersion
1070
     0
  0
VISUALSTYLE
  5
2A
102
{ACAD_XDICTIONARY
360
3F7
102
}
102
{ACAD_REACTORS
330
29
102
}
330
29
100
AcDbVisualStyle
  2
Flat
 70
     0
 71
     2
 72
     1
 73
     1
 90
        2
 40
-0.6
 41
30.0
 62
     5
 63
     7
421
 16777215
 74
     0
 91
        0
 64
     7
 65
   257
 75
     1
175
     1
 42
1.0
 92
        8
 66
     7
 43
1.0
 76
     1
 77
     6
 78
     2
 67
     7
 79
     5
170
     0
171
     0
290
     0
174
     0
 93
       13
 44
0.0
173
     0
291
     1
 45
0.0
1001
ACAD
1000
AcDbSavedByObjectVersion
1070
     0
  0
VISUALSTYLE
  5
2B
102
{ACAD_XDICTIONARY
360
3F9
102
}
102
{ACAD_REACTORS
330
29
102
}
330
29
100
AcDbVisualStyle
  2
FlatWithEdges
 70
     1
 71
     2
 72
     1
 73
     1
 90
        2
 40
-0.6
 41
30.0
 62
     5
 63
     7
421
 16777215
 74
     1
 91
        0
 64
     7
 65
   257
 75
     1
175
     1
 42
1.0
 92
        0
 66
   257
 43
1.0
 76
     1
 77
     6
 78
     2
 67
     7
 79
     5
170
     0
171
     0
290
     0
174
     0
 93
       13
 44
0.0
173
     0
291
     1
 45
0.0
1001
ACAD
1000
AcDbSavedByObjectVersion
1070
     0
  0
VISUALSTYLE
  5
2C
102
{ACAD_XDICTIONARY
360
3FB
102
}
102
{ACAD_REACTORS
330
29
102
}
330
29
100
AcDbVisualStyle
  2
Gouraud
 70
     2
 71
     2
 72
     2
 73
     1
 90
        2
 40
-0.6
 41
30.0
 62
     5
 63
     7
421
 16777215
 74
     0
 91
        0
 64
     7
 65
   257
 75
     1
175
     1
 42
1.0
 92
        0
 66
     7
 43
1.0
 76
     1
 77
     6
 78
     2
 67
     7
 79
     5
170
     0
171
     0
290
     0
174
     0
 93
       13
 44
0.0
173
     0
291
     1
 45
0.0
1001
ACAD
1000
AcDbSavedByObjectVersion
1070
     0
  0
VISUALSTYLE
  5
2D
102
{ACAD_XDICTIONARY
360
3FD
102
}
102
{ACAD_REACTORS
330
29
102
}
330
29
100
AcDbVisualStyle
  2
GouraudWithEdges
 70
     3
 71
     2
 72
     2
 73
     1
 90
        2
 40
-0.6
 41
30.0
 62
     5
 63
     7
421
 16777215
 74
     1
 91
        0
 64
     7
 65
   257
 75
     1
175
     1
 42
1.0
 92
        0
 66
   257
 43
1.0
 76
     1
 77
     6
 78
     2
 67
     7
 79
     5
170
     0
171
     0
290
     0
174
     0
 93
       13
 44
0.0
173
     0
291
     1
 45
0.0
1001
ACAD
1000
AcDbSavedByObjectVersion
1070
     0
  0
VISUALSTYLE
  5
31
102
{ACAD_XDICTIONARY
360
405
102
}
102
{ACAD_REACTORS
330
29
102
}
330
29
100
AcDbVisualStyle
  2
Hidden
 70
     6
 71
     1
 72
     2
 73
     2
 90
        0
 40
-0.6
 41
-30.0
 62
     5
 63
     7
421
 16777215
 74
     2
 91
        2
 64
     7
 65
   257
 75
     2
175
     1
 42
40.0
 92
        0
 66
   257
 43
1.0
 76
     1
 77
     6
 78
     2
 67
     7
 79
     3
170
     0
171
     0
290
     0
174
     0
 93
        1
 44
0.0
173
     0
291
     0
 45
0.0
1001
ACAD
1000
AcDbSavedByObjectVersion
1070
     0
  0
VISUALSTYLE
  5
3F
102
{ACAD_XDICTIONARY
360
421
102
}
102
{ACAD_REACTORS
330
29
102
}
330
29
100
AcDbVisualStyle
  2
JitterOff
 70
    20
 71
     2
 72
     2
 73
     0
 90
        0
 40
-0.6
 41
-30.0
 62
     5
 63
     7
421
 16777215
 74
     1
 91
        4
 64
     7
 65
   257
 75
     1
175
     1
 42
1.0
 92
       10
 66
     7
 43
1.0
 76
     1
 77
     6
 78
     2
 67
     7
 79
     5
170
     0
171
     0
290
     0
174
     0
 93
        1
 44
0.0
173
     0
291
     1
 45
0.0
1001
ACAD
1000
AcDbSavedByObjectVersion
1070
     0
  0
VISUALSTYLE
  5
37
102
{ACAD_XDICTIONARY
360
411
102
}
102
{ACAD_REACTORS
330
29
102
}
330
29
100
AcDbVisualStyle
  2
Linepattern
 70
    14
 71
     2
 72
     2
 73
     0
 90
        0
 40
-0.6
 41
-30.0
 62
     5
 63
     7
421
 16777215
 74
     1
 91
        4
 64
     7
 65
   257
 75
     7
175
     7
 42
1.0
 92
        8
 66
     7
 43
1.0
 76
     1
 77
     6
 78
     2
 67
     7
 79
     5
170
     0
171
     0
290
     0
174
     0
 93
        1
 44
0.0
173
     0
291
     1
 45
0.0
1001
ACAD
1000
AcDbSavedByObjectVersion
1070
     0
  0
VISUALSTYLE
  5
40
102
{ACAD_XDICTIONARY
360
423
102
}
102
{ACAD_REACTORS
330
29
102
}
330
29
100
AcDbVisualStyle
  2
OverhangOff
 70
    21
 71
     2
 72
     2
 73
     0
 90
        0
 40
-0.6
 41
-30.0
 62
     5
 63
     7
421
 16777215
 74
     1
 91
        4
 64
     7
 65
   257
 75
     1
175
     1
 42
1.0
 92
        9
 66
     7
 43
1.0
 76
     1
 77
     6
 78
     2
 67
     7
 79
     5
170
     0
171
     0
290
     0
174
     0
 93
        1
 44
0.0
173
     0
291
     1
 45
0.0
1001
ACAD
1000
AcDbSavedByObjectVersion
1070
     0
  0
VISUALSTYLE
  5
33
102
{ACAD_XDICTIONARY
360
409
102
}
102
{ACAD_REACTORS
330
29
102
}
330
29
100
AcDbVisualStyle
  2
Realistic
 70
     8
 71
     2
 72
     3
 73
     0
 90
        2
 40
-0.6
 41
30.0
 62
     5
 63
     7
421
 16777215
 74
     0
 91
        0
 64
     7
 65
   257
 75
     1
175
     1
 42
1.0
 92
        8
 66
   257
 43
1.0
 76
     1
 77
     6
 78
     2
 67
     7
 79
     3
170
     0
171
     0
290
     0
174
     0
 93
       13
 44
0.0
173
     0
291
     0
 45
0.0
1001
ACAD
1000
AcDbSavedByObjectVersion
1070
     0
  0
VISUALSTYLE
  5
3E
102
{ACAD_XDICTIONARY
360
41F
102
}
102
{ACAD_REACTORS
330
29
102
}
330
29
100
AcDbVisualStyle
  2
Shaded
 70
    27
 71
     2
 72
     2
 73
     1
 90
        2
 40
-0.6
 41
30.0
 62
     5
 63
     7
421
 16777215
 74
     0
 91
        4
 64
     7
 65
   257
 75
     1
175
     1
 42
1.0
 92
        8
 66
   257
 43
1.0
 76
     1
 77
     6
 78
     2
 67
     8
425
  7895160
 79
     3
170
     0
171
     0
290
     0
174
     0
 93
        5
 44
0.0
173
     0
291
     0
 45
0.0
1001
ACAD
1000
AcDbSavedByObjectVersion
1070
     0
  0
VISUALSTYLE
  5
3D
102
{ACAD_XDICTIONARY
360
41D
102
}
102
{ACAD_REACTORS
330
29
102
}
330
29
100
AcDbVisualStyle
  2
Shaded with edges
 70
    26
 71
     2
 72
     2
 73
     1
 90
        2
 40
-0.6
 41
30.0
 62
     5
 63
     7
421
 16777215
 74
     1
 91
        2
 64
     7
 65
   257
 75
     2
175
     1
 42
1.0
 92
        8
 66
   257
 43
1.0
 76
     1
 77
     6
 78
     2
 67
     7
 79
     3
170
     0
171
     0
290
     0
174
     0
 93
        5
 44
0.0
173
     0
291
     0
 45
0.0
1001
ACAD
1000
AcDbSavedByObjectVersion
1070
     0
  0
VISUALSTYLE
  5
3A
102
{ACAD_XDICTIONARY
360
417
102
}
102
{ACAD_REACTORS
330
29
102
}
330
29
100
AcDbVisualStyle
  2
Shades of Gray
 70
    23
 71
     2
 72
     2
 73
     3
 90
        0
 40
-0.6
 41
-30.0
 62
     5
 63
     7
421
 16777215
 74
     2
 91
        2
 64
     7
 65
     7
 75
     1
175
     1
 42
40.0
 92
        8
 66
     7
 43
1.0
 76
     1
 77
     6
 78
     2
 67
     7
 79
     3
170
     0
171
     0
290
     0
174
     0
 93
        1
 44
0.0
173
     0
291
     0
 45
0.0
1001
ACAD
1000
AcDbSavedByObjectVersion
1070
     0
  0
VISUALSTYLE
  5
3B
102
{ACAD_XDICTIONARY
360
419
102
}
102
{ACAD_REACTORS
330
29
102
}
330
29
100
AcDbVisualStyle
  2
Sketchy
 70
    24
 71
     1
 72
     2
 73
     2
 90
        0
 40
-0.6
 41
-30.0
 62
     5
 63
     7
421
 16777215
 74
     2
 91
        2
 64
     7
 65
     7
 75
     1
175
     1
 42
40.0
 92
       11
 66
     7
 43
1.0
 76
     1
 77
     6
 78
     2
 67
     7
 79
     6
170
     0
171
     0
290
     0
174
     0
 93
        1
 44
0.0
173
     0
291
     0
 45
0.0
1001
ACAD
1000
AcDbSavedByObjectVersion
1070
     0
  0
VISUALSTYLE
  5
36
102
{ACAD_XDICTIONARY
360
40F
102
}
102
{ACAD_REACTORS
330
29
102
}
330
29
100
AcDbVisualStyle
  2
Thicken
 70
    13
 71
     2
 72
     2
 73
     0
 90
        0
 40
-0.6
 41
-30.0
 62
     5
 63
     7
421
 16777215
 74
     1
 91
        4
 64
     7
 65
   257
 75
     1
175
     1
 42
1.0
 92
       12
 66
     7
 43
1.0
 76
     1
 77
     6
 78
     2
 67
     7
 79
     5
170
     0
171
     0
290
     0
174
     0
 93
        1
 44
0.0
173
     0
291
     1
 45
0.0
1001
ACAD
1000
AcDbSavedByObjectVersion
1070
     0
  0
VISUALSTYLE
  5
30
102
{ACAD_XDICTIONARY
360
403
102
}
102
{ACAD_REACTORS
330
29
102
}
330
29
100
AcDbVisualStyle
  2
Wireframe
 70
     5
 71
     0
 72
     2
 73
     0
 90
        0
 40
-0.6
 41
-30.0
 62
     5
 63
     7
421
 16777215
 74
     1
 91
        4
 64
     7
 65
   257
 75
     1
175
     1
 42
1.0
 92
        0
 66
   257
 43
1.0
 76
     1
 77
     6
 78
     2
 67
     7
 79
     3
170
     0
171
     0
290
     0
174
     0
 93
        1
 44
0.0
173
     0
291
     0
 45
0.0
1001
ACAD
1000
AcDbSavedByObjectVersion
1070
     0
  0
VISUALSTYLE
  5
3C
102
{ACAD_XDICTIONARY
360
41B
102
}
102
{ACAD_REACTORS
330
29
102
}
330
29
100
AcDbVisualStyle
  2
X-Ray
 70
    25
 71
     2
 72
     2
 73
     1
 90
        1
 40
0.5
 41
-30.0
 62
     5
 63
     7
421
 16777215
 74
     1
 91
        0
 64
     7
 65
   257
 75
     1
175
     1
 42
1.0
 92
        8
 66
     7
 43
1.0
 76
     1
 77
     6
 78
     2
 67
     7
 79
     3
170
     0
171
     0
290
     0
174
     0
 93
       13
 44
0.0
173
     0
291
     0
 45
0.0
1001
ACAD
1000
AcDbSavedByObjectVersion
1070
     0
  0
DICTIONARYVAR
  5
3EF
102
{ACAD_REACTORS
330
3EA
102
}
330
3EA
100
DictionaryVariables
280
     0
  1
1:1
  0
DICTIONARYVAR
  5
3EC
102
{ACAD_REACTORS
330
3EA
102
}
330
3EA
100
DictionaryVariables
280
     0
  1
STANDARD
  0
DICTIONARYVAR
  5
3EB
102
{ACAD_REACTORS
330
3EA
102
}
330
3EA
100
DictionaryVariables
280
     0
  1
STANDARD
  0
DICTIONARYVAR
  5
3ED
102
{ACAD_REACTORS
330
3EA
102
}
330
3EA
100
DictionaryVariables
280
     0
  1
Imperial24
  0
DICTIONARYVAR
  5
3EE
102
{ACAD_REACTORS
330
3EA
102
}
330
3EA
100
DictionaryVariables
280
     0
  1
Imperial24
  0
DICTIONARYVAR
  5
3F0
102
{ACAD_REACTORS
330
3EA
102
}
330
3EA
100
DictionaryVariables
280
     0
  1
2
  0
DICTIONARY
  5
36E
102
{ACAD_REACTORS
330
365
102
}
330
365
100
AcDbDictionary
281
     1
  0
DICTIONARY
  5
42B
330
6A
100
AcDbDictionary
280
     1
281
     1
  3
ACAD_XREC_ROUNDTRIP
360
42C
  0
DICTIONARY
  5
1A
330
19
100
AcDbDictionary
280
     1
281
     1
  3
ACAD_XREC_ROUNDTRIP
360
3F5
  3
BUMPTILE
360
1C
  3
DIFFUSETILE
360
1B
  3
OPACITYTILE
360
1F
  3
REFLECTIONTILE
360
1E
  3
REFRACTIONTILE
360
20
  3
SPECULARTILE
360
1D
  0
DICTIONARY
  5
12
330
11
100
AcDbDictionary
280
     1
281
     1
  3
ACAD_XREC_ROUNDTRIP
360
3F4
  3
BUMPTILE
360
14
  3
DIFFUSETILE
360
13
  3
OPACITYTILE
360
17
  3
REFLECTIONTILE
360
16
  3
REFRACTIONTILE
360
18
  3
SPECULARTILE
360
15
  0
DICTIONARY
  5
22
330
21
100
AcDbDictionary
280
     1
281
     1
  3
ACAD_XREC_ROUNDTRIP
360
3F6
  3
BUMPTILE
360
24
  3
DIFFUSETILE
360
23
  3
OPACITYTILE
360
27
  3
REFLECTIONTILE
360
26
  3
REFRACTIONTILE
360
28
  3
SPECULARTILE
360
25
  0
DICTIONARY
  5
429
330
68
100
AcDbDictionary
280
     1
281
     1
  3
ACAD_XREC_ROUNDTRIP
360
42A
  0
DICTIONARY
  5
3F1
330
64
100
AcDbDictionary
280
     1
281
     1
  3
ACAD_ROUNDTRIP_2008_TABLESTYLE_CELLSTYLEMAP
360
3F2
  3
ACAD_XREC_ROUNDTRIP
360
427
  0
DICTIONARY
  5
401
330
2F
100
AcDbDictionary
280
     1
281
     1
  3
ACAD_XREC_ROUNDTRIP
360
402
  0
DICTIONARY
  5
3FF
330
2E
100
AcDbDictionary
280
     1
281
     1
  3
ACAD_XREC_ROUNDTRIP
360
400
  0
DICTIONARY
  5
40D
330
35
100
AcDbDictionary
280
     1
281
     1
  3
ACAD_XREC_ROUNDTRIP
360
40E
  0
DICTIONARY
  5
415
330
39
100
AcDbDictionary
280
     1
281
     1
  3
ACAD_XREC_ROUNDTRIP
360
416
  0
DICTIONARY
  5
407
330
32
100
AcDbDictionary
280
     1
281
     1
  3
ACAD_XREC_ROUNDTRIP
360
408
  0
DICTIONARY
  5
40B
330
34
100
AcDbDictionary
280
     1
281
     1
  3
ACAD_XREC_ROUNDTRIP
360
40C
  0
DICTIONARY
  5
425
330
41
100
AcDbDictionary
280
     1
281
     1
  3
ACAD_XREC_ROUNDTRIP
360
426
  0
DICTIONARY
  5
413
330
38
100
AcDbDictionary
280
     1
281
     1
  3
ACAD_XREC_ROUNDTRIP
360
414
  0
DICTIONARY
  5
3F7
330
2A
100
AcDbDictionary
280
     1
281
     1
  3
ACAD_XREC_ROUNDTRIP
360
3F8
  0
DICTIONARY
  5
3F9
330
2B
100
AcDbDictionary
280
     1
281
     1
  3
ACAD_XREC_ROUNDTRIP
360
3FA
  0
DICTIONARY
  5
3FB
330
2C
100
AcDbDictionary
280
     1
281
     1
  3
ACAD_XREC_ROUNDTRIP
360
3FC
  0
DICTIONARY
  5
3FD
330
2D
100
AcDbDictionary
280
     1
281
     1
  3
ACAD_XREC_ROUNDTRIP
360
3FE
  0
DICTIONARY
  5
405
330
31
100
AcDbDictionary
280
     1
281
     1
  3
ACAD_XREC_ROUNDTRIP
360
406
  0
DICTIONARY
  5
421
330
3F
100
AcDbDictionary
280
     1
281
     1
  3
ACAD_XREC_ROUNDTRIP
360
422
  0
DICTIONARY
  5
411
330
37
100
AcDbDictionary
280
     1
281
     1
  3
ACAD_XREC_ROUNDTRIP
360
412
  0
DICTIONARY
  5
423
330
40
100
AcDbDictionary
280
     1
281
     1
  3
ACAD_XREC_ROUNDTRIP
360
424
  0
DICTIONARY
  5
409
330
33
100
AcDbDictionary
280
     1
281
     1
  3
ACAD_XREC_ROUNDTRIP
360
40A
  0
DICTIONARY
  5
41F
330
3E
100
AcDbDictionary
280
     1
281
     1
  3
ACAD_XREC_ROUNDTRIP
360
420
  0
DICTIONARY
  5
41D
330
3D
100
AcDbDictionary
280
     1
281
     1
  3
ACAD_XREC_ROUNDTRIP
360
41E
  0
DICTIONARY
  5
417
330
3A
100
AcDbDictionary
280
     1
281
     1
  3
ACAD_XREC_ROUNDTRIP
360
418
  0
DICTIONARY
  5
419
330
3B
100
AcDbDictionary
280
     1
281
     1
  3
ACAD_XREC_ROUNDTRIP
360
41A
  0
DICTIONARY
  5
40F
330
36
100
AcDbDictionary
280
     1
281
     1
  3
ACAD_XREC_ROUNDTRIP
360
410
  0
DICTIONARY
  5
403
330
30
100
AcDbDictionary
280
     1
281
     1
  3
ACAD_XREC_ROUNDTRIP
360
404
  0
DICTIONARY
  5
41B
330
3C
100
AcDbDictionary
280
     1
281
     1
  3
ACAD_XREC_ROUNDTRIP
360
41C
  0
XRECORD
  5
42C
102
{ACAD_REACTORS
330
42B
102
}
330
42B
100
AcDbXrecord
280
     1
102
DISPLAYNAME
  1
Imperial24
102
FLAGS
 90
        0
  0
XRECORD
  5
3F5
102
{ACAD_REACTORS
330
1A
102
}
330
1A
100
AcDbXrecord
280
     1
102
MATERIAL
148
0.0
149
0.0
149
0.0
 93
        0
 94
      127
282
     0
 72
     0
 77
     0
171
     0
175
     0
179
     0
273
     0
  0
XRECORD
  5
1C
102
{ACAD_REACTORS
330
1A
102
}
330
1A
100
AcDbXrecord
280
     1
270
     1
271
     1
  0
XRECORD
  5
1B
102
{ACAD_REACTORS
330
1A
102
}
330
1A
100
AcDbXrecord
280
     1
270
     1
271
     1
  0
XRECORD
  5
1F
102
{ACAD_REACTORS
330
1A
102
}
330
1A
100
AcDbXrecord
280
     1
270
     1
271
     1
  0
XRECORD
  5
1E
102
{ACAD_REACTORS
330
1A
102
}
330
1A
100
AcDbXrecord
280
     1
270
     1
271
     1
  0
XRECORD
  5
20
102
{ACAD_REACTORS
330
1A
102
}
330
1A
100
AcDbXrecord
280
     1
270
     1
271
     1
  0
XRECORD
  5
1D
102
{ACAD_REACTORS
330
1A
102
}
330
1A
100
AcDbXrecord
280
     1
270
     1
271
     1
  0
XRECORD
  5
3F4
102
{ACAD_REACTORS
330
12
102
}
330
12
100
AcDbXrecord
280
     1
102
MATERIAL
148
0.0
149
0.0
149
0.0
 93
        0
 94
      127
282
     0
 72
     0
 77
     0
171
     0
175
     0
179
     0
273
     0
  0
XRECORD
  5
14
102
{ACAD_REACTORS
330
12
102
}
330
12
100
AcDbXrecord
280
     1
270
     1
271
     1
  0
XRECORD
  5
13
102
{ACAD_REACTORS
330
12
102
}
330
12
100
AcDbXrecord
280
     1
270
     1
271
     1
  0
XRECORD
  5
17
102
{ACAD_REACTORS
330
12
102
}
330
12
100
AcDbXrecord
280
     1
270
     1
271
     1
  0
XRECORD
  5
16
102
{ACAD_REACTORS
330
12
102
}
330
12
100
AcDbXrecord
280
     1
270
     1
271
     1
  0
XRECORD
  5
18
102
{ACAD_REACTORS
330
12
102
}
330
12
100
AcDbXrecord
280
     1
270
     1
271
     1
  0
XRECORD
  5
15
102
{ACAD_REACTORS
330
12
102
}
330
12
100
AcDbXrecord
280
     1
270
     1
271
     1
  0
XRECORD
  5
3F6
102
{ACAD_REACTORS
330
22
102
}
330
22
100
AcDbXrecord
280
     1
102
MATERIAL
148
0.0
149
0.0
149
0.0
 93
        0
 94
      127
282
     0
 72
     0
 77
     0
171
     0
175
     0
179
     0
273
     0
  0
XRECORD
  5
24
102
{ACAD_REACTORS
330
22
102
}
330
22
100
AcDbXrecord
280
     1
270
     1
271
     1
  0
XRECORD
  5
23
102
{ACAD_REACTORS
330
22
102
}
330
22
100
AcDbXrecord
280
     1
270
     1
271
     1
  0
XRECORD
  5
27
102
{ACAD_REACTORS
330
22
102
}
330
22
100
AcDbXrecord
280
     1
270
     1
271
     1
  0
XRECORD
  5
26
102
{ACAD_REACTORS
330
22
102
}
330
22
100
AcDbXrecord
280
     1
270
     1
271
     1
  0
XRECORD
  5
28
102
{ACAD_REACTORS
330
22
102
}
330
22
100
AcDbXrecord
280
     1
270
     1
271
     1
  0
XRECORD
  5
25
102
{ACAD_REACTORS
330
22
102
}
330
22
100
AcDbXrecord
280
     1
270
     1
271
     1
  0
XRECORD
  5
42A
102
{ACAD_REACTORS
330
429
102
}
330
429
100
AcDbXrecord
280
     1
102
DISPLAYNAME
  1
Imperial24
102
FLAGS
 90
        0
  0
CELLSTYLEMAP
  5
3F2
102
{ACAD_REACTORS
330
3F1
102
}
330
3F1
100
AcDbCellStyleMap
 90
        3
300
CELLSTYLE
  1
TABLEFORMAT_BEGIN
 90
        5
170
     1
 91
        0
 92
    32768
 62
   257
 93
        1
300
CONTENTFORMAT
  1
CONTENTFORMAT_BEGIN
 90
        0
 91
        0
 92
      512
 93
        0
300

 40
0.0
140
1.0
 94
        5
 62
     0
340
55
144
0.25
309
CONTENTFORMAT_END
171
     0
 94
        0
309
TABLEFORMAT_END
  1
CELLSTYLE_BEGIN
 90
        1
 91
        1
300
_TITLE
309
CELLSTYLE_END
300
CELLSTYLE
  1
TABLEFORMAT_BEGIN
 90
        5
170
     1
 91
        0
 92
        0
 62
   257
 93
        1
300
CONTENTFORMAT
  1
CONTENTFORMAT_BEGIN
 90
        0
 91
        0
 92
      512
 93
        0
300

 40
0.0
140
1.0
 94
        5
 62
     0
340
55
144
0.18
309
CONTENTFORMAT_END
171
     0
 94
        0
309
TABLEFORMAT_END
  1
CELLSTYLE_BEGIN
 90
        2
 91
        1
300
_HEADER
309
CELLSTYLE_END
300
CELLSTYLE
  1
TABLEFORMAT_BEGIN
 90
        5
170
     1
 91
        0
 92
        0
 62
   257
 93
        1
300
CONTENTFORMAT
  1
CONTENTFORMAT_BEGIN
 90
        0
 91
        0
 92
      512
 93
        0
300

 40
0.0
140
1.0
 94
        2
 62
     0
340
55
144
0.18
309
CONTENTFORMAT_END
171
     0
 94
        0
309
TABLEFORMAT_END
  1
CELLSTYLE_BEGIN
 90
        3
 91
        2
300
_DATA
309
CELLSTYLE_END
  0
XRECORD
  5
427
102
{ACAD_REACTORS
330
3F1
102
}
330
3F1
100
AcDbXrecord
280
     1
102
ACAD_ROUNDTRIP_PRE2007_TABLESTYLE
 90
      512
 91
        0
  1

 92
      512
 93
        0
  2

 94
      512
 95
        0
  3

  0
XRECORD
  5
402
102
{ACAD_REACTORS
330
401
102
}
330
401
100
AcDbXrecord
280
     1
102
RTVSPost2010Prop28
280
     1
102
RTVSPost2010PropOp28
 70
     1
102
RTVSPost2010Prop29
280
     1
102
RTVSPost2010PropOp29
 70
     1
102
RTVSPost2010Prop30
280
     0
102
RTVSPost2010PropOp30
 70
     1
102
RTVSPost2010Prop31
280
     0
102
RTVSPost2010PropOp31
 70
     1
102
RTVSPost2010Prop32
280
     0
102
RTVSPost2010PropOp32
 70
     1
102
RTVSPost2010Prop33
280
     0
102
RTVSPost2010PropOp33
 70
     1
102
RTVSPost2010Prop34
280
     0
102
RTVSPost2010PropOp34
 70
     1
102
RTVSPost2010Prop35
280
     0
102
RTVSPost2010PropOp35
 70
     1
102
RTVSPost2010Prop36
280
     0
102
RTVSPost2010PropOp36
 70
     1
102
RTVSPost2010Prop37
 90
       50
102
RTVSPost2010PropOp37
 70
     1
102
RTVSPost2010Prop38
140
0.0
102
RTVSPost2010PropOp38
 70
     1
102
RTVSPost2010Prop39
140
1.0
102
RTVSPost2010PropOp39
 70
     1
102
RTVSPost2010Prop40
 90
        0
102
RTVSPost2010PropOp40
 70
     1
102
RTVSPost2010Prop41ColorIndex
 90
       18
102
RTVSPost2010Prop41ColorRGB
 90
        0
102
RTVSPost2010PropOp41
 70
     1
102
RTVSPost2010Prop42
 90
       50
102
RTVSPost2010PropOp42
 70
     1
102
RTVSPost2010Prop43
 90
        3
102
RTVSPost2010PropOp43
 70
     1
102
RTVSPost2010Prop44ColorIndex
 90
        5
102
RTVSPost2010Prop44ColorRGB
 90
      255
102
RTVSPost2010PropOp44
 70
     1
102
RTVSPost2010Prop45
280
     0
102
RTVSPost2010PropOp45
 70
     1
102
RTVSPost2010Prop46
 90
       50
102
RTVSPost2010PropOp46
 70
     1
102
RTVSPost2010Prop47
 90
       50
102
RTVSPost2010PropOp47
 70
     1
102
RTVSPost2010Prop48
 90
       50
102
RTVSPost2010PropOp48
 70
     1
102
RTVSPost2010Prop49
280
     0
102
RTVSPost2010PropOp49
 70
     1
102
RTVSPost2010Prop50
 90
       50
102
RTVSPost2010PropOp50
 70
     1
102
RTVSPost2010Prop51ColorIndex
 90
      256
102
RTVSPost2010Prop51ColorRGB
 90
-16777216
102
RTVSPost2010PropOp51
 70
     0
102
RTVSPost2010Prop52
140
1.0
102
RTVSPost2010PropOp52
 70
     0
102
RTVSPost2010Prop53
 90
        2
102
RTVSPost2010PropOp53
 70
     1
102
RTVSPost2010Prop54
  1
strokes_ogs.tif
102
RTVSPost2010PropOp54
 70
     1
102
RTVSPost2010Prop55
280
     0
102
RTVSPost2010PropOp55
 70
     1
102
RTVSPost2010Prop56
140
1.0
102
RTVSPost2010PropOp56
 70
     1
102
RTVSPost2010Prop57
140
1.0
102
RTVSPost2010PropOp57
 70
     1
102
RTVSPropertyOp0
 70
     1
102
RTVSPropertyOp1
 70
     1
102
RTVSPropertyOp2
 70
     1
102
RTVSPropertyOp3
 70
     1
102
RTVSPropertyOp4
 70
     1
102
RTVSPropertyOp5
 70
     1
102
RTVSPropertyOp6
 70
     1
102
RTVSPropertyOp7
 70
     1
102
RTVSPropertyOp8
 70
     1
102
RTVSPropertyOp9
 70
     1
102
RTVSPropertyOp10
 70
     1
102
RTVSPropertyOp11
 70
     1
102
RTVSPropertyOp12
 70
     1
102
RTVSPropertyOp13
 70
     1
102
RTVSPropertyOp14
 70
     1
102
RTVSPropertyOp15
 70
     1
102
RTVSPropertyOp16
 70
     1
102
RTVSPropertyOp17
 70
     1
102
RTVSPropertyOp18
 70
     1
102
RTVSPropertyOp19
 70
     1
102
RTVSPropertyOp20
 70
     1
102
RTVSPropertyOp21
 70
     1
102
RTVSPropertyOp22
 70
     1
102
RTVSPropertyOp23
 70
     1
102
RTVSPropertyOp24
 70
     1
102
RTVSPropertyOp25
 70
     1
102
RTVSPropertyOp26
 70
     1
102
RTVSPropertyOp27
 70
     1
102
RTVSPropertyOp28
 70
     1
102
RTVSPropertyOp29
 70
     1
102
RTVSPropertyOp30
 70
     1
102
RTVSPropertyOp31
 70
     1
102
RTVSPropertyOp32
 70
     1
102
RTVSPropertyOp33
 70
     1
102
RTVSPropertyOp34
 70
     1
102
RTVSPropertyOp35
 70
     1
102
RTVSPropertyOp36
 70
     1
102
RTVSPropertyOp37
 70
     1
102
RTVSPropertyOp38
 70
     1
102
RTVSPropertyOp39
 70
     1
102
RTVSPropertyOp40
 70
     1
102
RTVSPropertyOp41
 70
     1
102
RTVSPropertyOp42
 70
     1
102
RTVSPropertyOp43
 70
     1
102
RTVSPropertyOp44
 70
     1
102
RTVSPropertyOp45
 70
     1
102
RTVSPropertyOp46
 70
     1
102
RTVSPropertyOp47
 70
     1
102
RTVSPropertyOp48
 70
     1
102
RTVSPropertyOp49
 70
     1
102
RTVSPropertyOp50
 70
     1
102
RTVSPropertyOp51
 70
     0
102
RTVSPropertyOp52
 70
     0
102
RTVSPropertyOp53
 70
     1
102
RTVSPropertyOp54
 70
     1
102
RTVSPropertyOp55
 70
     1
102
RTVSPropertyOp56
 70
     1
102
RTVSPropertyOp57
 70
     1
102
RTVSPropertyOp58
 70
     1
102
RTVSPropertyOp59
 70
     1
102
RTVSPropertyOp60
 70
     1
102
RTVSPropertyOp61
 70
     1
102
RTVSPropertyOp62
 70
     1
  0
XRECORD
  5
400
102
{ACAD_REACTORS
330
3FF
102
}
330
3FF
100
AcDbXrecord
280
     1
102
RTVSPost2010Prop28
280
     0
102
RTVSPost2010PropOp28
 70
     1
102
RTVSPost2010Prop29
280
     1
102
RTVSPost2010PropOp29
 70
     1
102
RTVSPost2010Prop30
280
     1
102
RTVSPost2010PropOp30
 70
     1
102
RTVSPost2010Prop31
280
     0
102
RTVSPost2010PropOp31
 70
     1
102
RTVSPost2010Prop32
280
     0
102
RTVSPost2010PropOp32
 70
     1
102
RTVSPost2010Prop33
280
     0
102
RTVSPost2010PropOp33
 70
     1
102
RTVSPost2010Prop34
280
     0
102
RTVSPost2010PropOp34
 70
     1
102
RTVSPost2010Prop35
280
     0
102
RTVSPost2010PropOp35
 70
     1
102
RTVSPost2010Prop36
280
     0
102
RTVSPost2010PropOp36
 70
     1
102
RTVSPost2010Prop37
 90
       50
102
RTVSPost2010PropOp37
 70
     1
102
RTVSPost2010Prop38
140
0.0
102
RTVSPost2010PropOp38
 70
     1
102
RTVSPost2010Prop39
140
1.0
102
RTVSPost2010PropOp39
 70
     1
102
RTVSPost2010Prop40
 90
        0
102
RTVSPost2010PropOp40
 70
     1
102
RTVSPost2010Prop41ColorIndex
 90
       18
102
RTVSPost2010Prop41ColorRGB
 90
        0
102
RTVSPost2010PropOp41
 70
     1
102
RTVSPost2010Prop42
 90
       50
102
RTVSPost2010PropOp42
 70
     1
102
RTVSPost2010Prop43
 90
        3
102
RTVSPost2010PropOp43
 70
     1
102
RTVSPost2010Prop44ColorIndex
 90
        5
102
RTVSPost2010Prop44ColorRGB
 90
      255
102
RTVSPost2010PropOp44
 70
     1
102
RTVSPost2010Prop45
280
     0
102
RTVSPost2010PropOp45
 70
     1
102
RTVSPost2010Prop46
 90
       50
102
RTVSPost2010PropOp46
 70
     1
102
RTVSPost2010Prop47
 90
       50
102
RTVSPost2010PropOp47
 70
     1
102
RTVSPost2010Prop48
 90
       50
102
RTVSPost2010PropOp48
 70
     1
102
RTVSPost2010Prop49
280
     0
102
RTVSPost2010PropOp49
 70
     1
102
RTVSPost2010Prop50
 90
       50
102
RTVSPost2010PropOp50
 70
     1
102
RTVSPost2010Prop51ColorIndex
 90
      256
102
RTVSPost2010Prop51ColorRGB
 90
-16777216
102
RTVSPost2010PropOp51
 70
     0
102
RTVSPost2010Prop52
140
1.0
102
RTVSPost2010PropOp52
 70
     0
102
RTVSPost2010Prop53
 90
        2
102
RTVSPost2010PropOp53
 70
     1
102
RTVSPost2010Prop54
  1
strokes_ogs.tif
102
RTVSPost2010PropOp54
 70
     1
102
RTVSPost2010Prop55
280
     0
102
RTVSPost2010PropOp55
 70
     1
102
RTVSPost2010Prop56
140
1.0
102
RTVSPost2010PropOp56
 70
     1
102
RTVSPost2010Prop57
140
1.0
102
RTVSPost2010PropOp57
 70
     1
102
RTVSPropertyOp0
 70
     1
102
RTVSPropertyOp1
 70
     1
102
RTVSPropertyOp2
 70
     1
102
RTVSPropertyOp3
 70
     1
102
RTVSPropertyOp4
 70
     1
102
RTVSPropertyOp5
 70
     1
102
RTVSPropertyOp6
 70
     1
102
RTVSPropertyOp7
 70
     1
102
RTVSPropertyOp8
 70
     1
102
RTVSPropertyOp9
 70
     1
102
RTVSPropertyOp10
 70
     1
102
RTVSPropertyOp11
 70
     1
102
RTVSPropertyOp12
 70
     1
102
RTVSPropertyOp13
 70
     1
102
RTVSPropertyOp14
 70
     1
102
RTVSPropertyOp15
 70
     1
102
RTVSPropertyOp16
 70
     1
102
RTVSPropertyOp17
 70
     1
102
RTVSPropertyOp18
 70
     1
102
RTVSPropertyOp19
 70
     1
102
RTVSPropertyOp20
 70
     1
102
RTVSPropertyOp21
 70
     1
102
RTVSPropertyOp22
 70
     1
102
RTVSPropertyOp23
 70
     1
102
RTVSPropertyOp24
 70
     1
102
RTVSPropertyOp25
 70
     1
102
RTVSPropertyOp26
 70
     1
102
RTVSPropertyOp27
 70
     1
102
RTVSPropertyOp28
 70
     1
102
RTVSPropertyOp29
 70
     1
102
RTVSPropertyOp30
 70
     1
102
RTVSPropertyOp31
 70
     1
102
RTVSPropertyOp32
 70
     1
102
RTVSPropertyOp33
 70
     1
102
RTVSPropertyOp34
 70
     1
102
RTVSPropertyOp35
 70
     1
102
RTVSPropertyOp36
 70
     1
102
RTVSPropertyOp37
 70
     1
102
RTVSPropertyOp38
 70
     1
102
RTVSPropertyOp39
 70
     1
102
RTVSPropertyOp40
 70
     1
102
RTVSPropertyOp41
 70
     1
102
RTVSPropertyOp42
 70
     1
102
RTVSPropertyOp43
 70
     1
102
RTVSPropertyOp44
 70
     1
102
RTVSPropertyOp45
 70
     1
102
RTVSPropertyOp46
 70
     1
102
RTVSPropertyOp47
 70
     1
102
RTVSPropertyOp48
 70
     1
102
RTVSPropertyOp49
 70
     1
102
RTVSPropertyOp50
 70
     1
102
RTVSPropertyOp51
 70
     0
102
RTVSPropertyOp52
 70
     0
102
RTVSPropertyOp53
 70
     1
102
RTVSPropertyOp54
 70
     1
102
RTVSPropertyOp55
 70
     1
102
RTVSPropertyOp56
 70
     1
102
RTVSPropertyOp57
 70
     1
102
RTVSPropertyOp58
 70
     1
102
RTVSPropertyOp59
 70
     1
102
RTVSPropertyOp60
 70
     1
102
RTVSPropertyOp61
 70
     1
102
RTVSPropertyOp62
 70
     1
  0
XRECORD
  5
40E
102
{ACAD_REACTORS
330
40D
102
}
330
40D
100
AcDbXrecord
280
     1
102
RTVSPost2010Prop28
280
     0
102
RTVSPost2010PropOp28
 70
     1
102
RTVSPost2010Prop29
280
     1
102
RTVSPost2010PropOp29
 70
     1
102
RTVSPost2010Prop30
280
     1
102
RTVSPost2010PropOp30
 70
     1
102
RTVSPost2010Prop31
280
     0
102
RTVSPost2010PropOp31
 70
     1
102
RTVSPost2010Prop32
280
     0
102
RTVSPost2010PropOp32
 70
     1
102
RTVSPost2010Prop33
280
     0
102
RTVSPost2010PropOp33
 70
     1
102
RTVSPost2010Prop34
280
     0
102
RTVSPost2010PropOp34
 70
     1
102
RTVSPost2010Prop35
280
     0
102
RTVSPost2010PropOp35
 70
     1
102
RTVSPost2010Prop36
280
     0
102
RTVSPost2010PropOp36
 70
     1
102
RTVSPost2010Prop37
 90
       50
102
RTVSPost2010PropOp37
 70
     1
102
RTVSPost2010Prop38
140
0.0
102
RTVSPost2010PropOp38
 70
     1
102
RTVSPost2010Prop39
140
1.0
102
RTVSPost2010PropOp39
 70
     1
102
RTVSPost2010Prop40
 90
        0
102
RTVSPost2010PropOp40
 70
     1
102
RTVSPost2010Prop41ColorIndex
 90
       18
102
RTVSPost2010Prop41ColorRGB
 90
        0
102
RTVSPost2010PropOp41
 70
     1
102
RTVSPost2010Prop42
 90
       50
102
RTVSPost2010PropOp42
 70
     1
102
RTVSPost2010Prop43
 90
        3
102
RTVSPost2010PropOp43
 70
     1
102
RTVSPost2010Prop44ColorIndex
 90
        5
102
RTVSPost2010Prop44ColorRGB
 90
      255
102
RTVSPost2010PropOp44
 70
     1
102
RTVSPost2010Prop45
280
     0
102
RTVSPost2010PropOp45
 70
     1
102
RTVSPost2010Prop46
 90
       50
102
RTVSPost2010PropOp46
 70
     1
102
RTVSPost2010Prop47
 90
       50
102
RTVSPost2010PropOp47
 70
     1
102
RTVSPost2010Prop48
 90
       50
102
RTVSPost2010PropOp48
 70
     1
102
RTVSPost2010Prop49
280
     0
102
RTVSPost2010PropOp49
 70
     1
102
RTVSPost2010Prop50
 90
       50
102
RTVSPost2010PropOp50
 70
     1
102
RTVSPost2010Prop51ColorIndex
 90
      256
102
RTVSPost2010Prop51ColorRGB
 90
-16777216
102
RTVSPost2010PropOp51
 70
     0
102
RTVSPost2010Prop52
140
1.0
102
RTVSPost2010PropOp52
 70
     0
102
RTVSPost2010Prop53
 90
        2
102
RTVSPost2010PropOp53
 70
     1
102
RTVSPost2010Prop54
  1
strokes_ogs.tif
102
RTVSPost2010PropOp54
 70
     1
102
RTVSPost2010Prop55
280
     0
102
RTVSPost2010PropOp55
 70
     1
102
RTVSPost2010Prop56
140
1.0
102
RTVSPost2010PropOp56
 70
     1
102
RTVSPost2010Prop57
140
1.0
102
RTVSPost2010PropOp57
 70
     1
102
RTVSPropertyOp0
 70
     1
102
RTVSPropertyOp1
 70
     1
102
RTVSPropertyOp2
 70
     1
102
RTVSPropertyOp3
 70
     1
102
RTVSPropertyOp4
 70
     1
102
RTVSPropertyOp5
 70
     1
102
RTVSPropertyOp6
 70
     1
102
RTVSPropertyOp7
 70
     1
102
RTVSPropertyOp8
 70
     1
102
RTVSPropertyOp9
 70
     1
102
RTVSPropertyOp10
 70
     1
102
RTVSPropertyOp11
 70
     1
102
RTVSPropertyOp12
 70
     1
102
RTVSPropertyOp13
 70
     1
102
RTVSPropertyOp14
 70
     1
102
RTVSPropertyOp15
 70
     1
102
RTVSPropertyOp16
 70
     1
102
RTVSPropertyOp17
 70
     1
102
RTVSPropertyOp18
 70
     1
102
RTVSPropertyOp19
 70
     1
102
RTVSPropertyOp20
 70
     1
102
RTVSPropertyOp21
 70
     1
102
RTVSPropertyOp22
 70
     1
102
RTVSPropertyOp23
 70
     1
102
RTVSPropertyOp24
 70
     1
102
RTVSPropertyOp25
 70
     1
102
RTVSPropertyOp26
 70
     1
102
RTVSPropertyOp27
 70
     1
102
RTVSPropertyOp28
 70
     1
102
RTVSPropertyOp29
 70
     1
102
RTVSPropertyOp30
 70
     1
102
RTVSPropertyOp31
 70
     1
102
RTVSPropertyOp32
 70
     1
102
RTVSPropertyOp33
 70
     1
102
RTVSPropertyOp34
 70
     1
102
RTVSPropertyOp35
 70
     1
102
RTVSPropertyOp36
 70
     1
102
RTVSPropertyOp37
 70
     1
102
RTVSPropertyOp38
 70
     1
102
RTVSPropertyOp39
 70
     1
102
RTVSPropertyOp40
 70
     1
102
RTVSPropertyOp41
 70
     1
102
RTVSPropertyOp42
 70
     1
102
RTVSPropertyOp43
 70
     1
102
RTVSPropertyOp44
 70
     1
102
RTVSPropertyOp45
 70
     1
102
RTVSPropertyOp46
 70
     1
102
RTVSPropertyOp47
 70
     1
102
RTVSPropertyOp48
 70
     1
102
RTVSPropertyOp49
 70
     1
102
RTVSPropertyOp50
 70
     1
102
RTVSPropertyOp51
 70
     0
102
RTVSPropertyOp52
 70
     0
102
RTVSPropertyOp53
 70
     1
102
RTVSPropertyOp54
 70
     1
102
RTVSPropertyOp55
 70
     1
102
RTVSPropertyOp56
 70
     1
102
RTVSPropertyOp57
 70
     1
102
RTVSPropertyOp58
 70
     1
102
RTVSPropertyOp59
 70
     1
102
RTVSPropertyOp60
 70
     1
102
RTVSPropertyOp61
 70
     1
102
RTVSPropertyOp62
 70
     1
  0
XRECORD
  5
416
102
{ACAD_REACTORS
330
415
102
}
330
415
100
AcDbXrecord
280
     1
102
RTVSPost2010Prop28
280
     0
102
RTVSPost2010PropOp28
 70
     1
102
RTVSPost2010Prop29
280
     1
102
RTVSPost2010PropOp29
 70
     1
102
RTVSPost2010Prop30
280
     1
102
RTVSPost2010PropOp30
 70
     1
102
RTVSPost2010Prop31
280
     0
102
RTVSPost2010PropOp31
 70
     1
102
RTVSPost2010Prop32
280
     0
102
RTVSPost2010PropOp32
 70
     1
102
RTVSPost2010Prop33
280
     0
102
RTVSPost2010PropOp33
 70
     1
102
RTVSPost2010Prop34
280
     0
102
RTVSPost2010PropOp34
 70
     1
102
RTVSPost2010Prop35
280
     0
102
RTVSPost2010PropOp35
 70
     1
102
RTVSPost2010Prop36
280
     0
102
RTVSPost2010PropOp36
 70
     1
102
RTVSPost2010Prop37
 90
       50
102
RTVSPost2010PropOp37
 70
     1
102
RTVSPost2010Prop38
140
0.0
102
RTVSPost2010PropOp38
 70
     1
102
RTVSPost2010Prop39
140
1.0
102
RTVSPost2010PropOp39
 70
     1
102
RTVSPost2010Prop40
 90
        0
102
RTVSPost2010PropOp40
 70
     1
102
RTVSPost2010Prop41ColorIndex
 90
       18
102
RTVSPost2010Prop41ColorRGB
 90
        0
102
RTVSPost2010PropOp41
 70
     1
102
RTVSPost2010Prop42
 90
       50
102
RTVSPost2010PropOp42
 70
     1
102
RTVSPost2010Prop43
 90
        3
102
RTVSPost2010PropOp43
 70
     1
102
RTVSPost2010Prop44ColorIndex
 90
        5
102
RTVSPost2010Prop44ColorRGB
 90
      255
102
RTVSPost2010PropOp44
 70
     1
102
RTVSPost2010Prop45
280
     0
102
RTVSPost2010PropOp45
 70
     1
102
RTVSPost2010Prop46
 90
       50
102
RTVSPost2010PropOp46
 70
     1
102
RTVSPost2010Prop47
 90
       50
102
RTVSPost2010PropOp47
 70
     1
102
RTVSPost2010Prop48
 90
       50
102
RTVSPost2010PropOp48
 70
     1
102
RTVSPost2010Prop49
280
     0
102
RTVSPost2010PropOp49
 70
     1
102
RTVSPost2010Prop50
 90
       50
102
RTVSPost2010PropOp50
 70
     1
102
RTVSPost2010Prop51ColorIndex
 90
      256
102
RTVSPost2010Prop51ColorRGB
 90
-16777216
102
RTVSPost2010PropOp51
 70
     0
102
RTVSPost2010Prop52
140
1.0
102
RTVSPost2010PropOp52
 70
     0
102
RTVSPost2010Prop53
 90
        2
102
RTVSPost2010PropOp53
 70
     1
102
RTVSPost2010Prop54
  1
strokes_ogs.tif
102
RTVSPost2010PropOp54
 70
     1
102
RTVSPost2010Prop55
280
     0
102
RTVSPost2010PropOp55
 70
     1
102
RTVSPost2010Prop56
140
1.0
102
RTVSPost2010PropOp56
 70
     1
102
RTVSPost2010Prop57
140
1.0
102
RTVSPost2010PropOp57
 70
     1
102
RTVSPropertyOp0
 70
     1
102
RTVSPropertyOp1
 70
     1
102
RTVSPropertyOp2
 70
     1
102
RTVSPropertyOp3
 70
     1
102
RTVSPropertyOp4
 70
     1
102
RTVSPropertyOp5
 70
     1
102
RTVSPropertyOp6
 70
     1
102
RTVSPropertyOp7
 70
     1
102
RTVSPropertyOp8
 70
     1
102
RTVSPropertyOp9
 70
     1
102
RTVSPropertyOp10
 70
     1
102
RTVSPropertyOp11
 70
     1
102
RTVSPropertyOp12
 70
     1
102
RTVSPropertyOp13
 70
     1
102
RTVSPropertyOp14
 70
     1
102
RTVSPropertyOp15
 70
     1
102
RTVSPropertyOp16
 70
     1
102
RTVSPropertyOp17
 70
     1
102
RTVSPropertyOp18
 70
     1
102
RTVSPropertyOp19
 70
     1
102
RTVSPropertyOp20
 70
     1
102
RTVSPropertyOp21
 70
     1
102
RTVSPropertyOp22
 70
     1
102
RTVSPropertyOp23
 70
     1
102
RTVSPropertyOp24
 70
     1
102
RTVSPropertyOp25
 70
     1
102
RTVSPropertyOp26
 70
     1
102
RTVSPropertyOp27
 70
     1
102
RTVSPropertyOp28
 70
     1
102
RTVSPropertyOp29
 70
     1
102
RTVSPropertyOp30
 70
     1
102
RTVSPropertyOp31
 70
     1
102
RTVSPropertyOp32
 70
     1
102
RTVSPropertyOp33
 70
     1
102
RTVSPropertyOp34
 70
     1
102
RTVSPropertyOp35
 70
     1
102
RTVSPropertyOp36
 70
     1
102
RTVSPropertyOp37
 70
     1
102
RTVSPropertyOp38
 70
     1
102
RTVSPropertyOp39
 70
     1
102
RTVSPropertyOp40
 70
     1
102
RTVSPropertyOp41
 70
     1
102
RTVSPropertyOp42
 70
     1
102
RTVSPropertyOp43
 70
     1
102
RTVSPropertyOp44
 70
     1
102
RTVSPropertyOp45
 70
     1
102
RTVSPropertyOp46
 70
     1
102
RTVSPropertyOp47
 70
     1
102
RTVSPropertyOp48
 70
     1
102
RTVSPropertyOp49
 70
     1
102
RTVSPropertyOp50
 70
     1
102
RTVSPropertyOp51
 70
     0
102
RTVSPropertyOp52
 70
     0
102
RTVSPropertyOp53
 70
     1
102
RTVSPropertyOp54
 70
     1
102
RTVSPropertyOp55
 70
     1
102
RTVSPropertyOp56
 70
     1
102
RTVSPropertyOp57
 70
     1
102
RTVSPropertyOp58
 70
     1
102
RTVSPropertyOp59
 70
     1
102
RTVSPropertyOp60
 70
     1
102
RTVSPropertyOp61
 70
     1
102
RTVSPropertyOp62
 70
     1
  0
XRECORD
  5
408
102
{ACAD_REACTORS
330
407
102
}
330
407
100
AcDbXrecord
280
     1
102
RTVSPost2010Prop28
280
     0
102
RTVSPost2010PropOp28
 70
     1
102
RTVSPost2010Prop29
280
     1
102
RTVSPost2010PropOp29
 70
     1
102
RTVSPost2010Prop30
280
     1
102
RTVSPost2010PropOp30
 70
     1
102
RTVSPost2010Prop31
280
     0
102
RTVSPost2010PropOp31
 70
     1
102
RTVSPost2010Prop32
280
     0
102
RTVSPost2010PropOp32
 70
     1
102
RTVSPost2010Prop33
280
     0
102
RTVSPost2010PropOp33
 70
     1
102
RTVSPost2010Prop34
280
     0
102
RTVSPost2010PropOp34
 70
     1
102
RTVSPost2010Prop35
280
     0
102
RTVSPost2010PropOp35
 70
     1
102
RTVSPost2010Prop36
280
     0
102
RTVSPost2010PropOp36
 70
     1
102
RTVSPost2010Prop37
 90
       50
102
RTVSPost2010PropOp37
 70
     1
102
RTVSPost2010Prop38
140
0.0
102
RTVSPost2010PropOp38
 70
     1
102
RTVSPost2010Prop39
140
1.0
102
RTVSPost2010PropOp39
 70
     1
102
RTVSPost2010Prop40
 90
        0
102
RTVSPost2010PropOp40
 70
     1
102
RTVSPost2010Prop41ColorIndex
 90
       18
102
RTVSPost2010Prop41ColorRGB
 90
        0
102
RTVSPost2010PropOp41
 70
     1
102
RTVSPost2010Prop42
 90
       50
102
RTVSPost2010PropOp42
 70
     1
102
RTVSPost2010Prop43
 90
        3
102
RTVSPost2010PropOp43
 70
     1
102
RTVSPost2010Prop44ColorIndex
 90
        5
102
RTVSPost2010Prop44ColorRGB
 90
      255
102
RTVSPost2010PropOp44
 70
     1
102
RTVSPost2010Prop45
280
     0
102
RTVSPost2010PropOp45
 70
     1
102
RTVSPost2010Prop46
 90
       50
102
RTVSPost2010PropOp46
 70
     1
102
RTVSPost2010Prop47
 90
       50
102
RTVSPost2010PropOp47
 70
     1
102
RTVSPost2010Prop48
 90
       50
102
RTVSPost2010PropOp48
 70
     1
102
RTVSPost2010Prop49
280
     0
102
RTVSPost2010PropOp49
 70
     1
102
RTVSPost2010Prop50
 90
       50
102
RTVSPost2010PropOp50
 70
     1
102
RTVSPost2010Prop51ColorIndex
 90
      256
102
RTVSPost2010Prop51ColorRGB
 90
-16777216
102
RTVSPost2010PropOp51
 70
     0
102
RTVSPost2010Prop52
140
1.0
102
RTVSPost2010PropOp52
 70
     0
102
RTVSPost2010Prop53
 90
        2
102
RTVSPost2010PropOp53
 70
     1
102
RTVSPost2010Prop54
  1
strokes_ogs.tif
102
RTVSPost2010PropOp54
 70
     1
102
RTVSPost2010Prop55
280
     0
102
RTVSPost2010PropOp55
 70
     1
102
RTVSPost2010Prop56
140
1.0
102
RTVSPost2010PropOp56
 70
     1
102
RTVSPost2010Prop57
140
1.0
102
RTVSPost2010PropOp57
 70
     1
102
RTVSPropertyOp0
 70
     1
102
RTVSPropertyOp1
 70
     1
102
RTVSPropertyOp2
 70
     1
102
RTVSPropertyOp3
 70
     1
102
RTVSPropertyOp4
 70
     1
102
RTVSPropertyOp5
 70
     1
102
RTVSPropertyOp6
 70
     1
102
RTVSPropertyOp7
 70
     1
102
RTVSPropertyOp8
 70
     1
102
RTVSPropertyOp9
 70
     1
102
RTVSPropertyOp10
 70
     1
102
RTVSPropertyOp11
 70
     1
102
RTVSPropertyOp12
 70
     1
102
RTVSPropertyOp13
 70
     1
102
RTVSPropertyOp14
 70
     1
102
RTVSPropertyOp15
 70
     1
102
RTVSPropertyOp16
 70
     1
102
RTVSPropertyOp17
 70
     1
102
RTVSPropertyOp18
 70
     1
102
RTVSPropertyOp19
 70
     1
102
RTVSPropertyOp20
 70
     1
102
RTVSPropertyOp21
 70
     1
102
RTVSPropertyOp22
 70
     1
102
RTVSPropertyOp23
 70
     1
102
RTVSPropertyOp24
 70
     1
102
RTVSPropertyOp25
 70
     1
102
RTVSPropertyOp26
 70
     1
102
RTVSPropertyOp27
 70
     1
102
RTVSPropertyOp28
 70
     1
102
RTVSPropertyOp29
 70
     1
102
RTVSPropertyOp30
 70
     1
102
RTVSPropertyOp31
 70
     1
102
RTVSPropertyOp32
 70
     1
102
RTVSPropertyOp33
 70
     1
102
RTVSPropertyOp34
 70
     1
102
RTVSPropertyOp35
 70
     1
102
RTVSPropertyOp36
 70
     1
102
RTVSPropertyOp37
 70
     1
102
RTVSPropertyOp38
 70
     1
102
RTVSPropertyOp39
 70
     1
102
RTVSPropertyOp40
 70
     1
102
RTVSPropertyOp41
 70
     1
102
RTVSPropertyOp42
 70
     1
102
RTVSPropertyOp43
 70
     1
102
RTVSPropertyOp44
 70
     1
102
RTVSPropertyOp45
 70
     1
102
RTVSPropertyOp46
 70
     1
102
RTVSPropertyOp47
 70
     1
102
RTVSPropertyOp48
 70
     1
102
RTVSPropertyOp49
 70
     1
102
RTVSPropertyOp50
 70
     1
102
RTVSPropertyOp51
 70
     0
102
RTVSPropertyOp52
 70
     0
102
RTVSPropertyOp53
 70
     1
102
RTVSPropertyOp54
 70
     1
102
RTVSPropertyOp55
 70
     1
102
RTVSPropertyOp56
 70
     1
102
RTVSPropertyOp57
 70
     1
102
RTVSPropertyOp58
 70
     1
102
RTVSPropertyOp59
 70
     1
102
RTVSPropertyOp60
 70
     1
102
RTVSPropertyOp61
 70
     1
102
RTVSPropertyOp62
 70
     1
  0
XRECORD
  5
40C
102
{ACAD_REACTORS
330
40B
102
}
330
40B
100
AcDbXrecord
280
     1
102
RTVSPost2010Prop28
280
     0
102
RTVSPost2010PropOp28
 70
     1
102
RTVSPost2010Prop29
280
     1
102
RTVSPost2010PropOp29
 70
     1
102
RTVSPost2010Prop30
280
     1
102
RTVSPost2010PropOp30
 70
     1
102
RTVSPost2010Prop31
280
     0
102
RTVSPost2010PropOp31
 70
     1
102
RTVSPost2010Prop32
280
     0
102
RTVSPost2010PropOp32
 70
     1
102
RTVSPost2010Prop33
280
     0
102
RTVSPost2010PropOp33
 70
     1
102
RTVSPost2010Prop34
280
     0
102
RTVSPost2010PropOp34
 70
     1
102
RTVSPost2010Prop35
280
     0
102
RTVSPost2010PropOp35
 70
     1
102
RTVSPost2010Prop36
280
     0
102
RTVSPost2010PropOp36
 70
     1
102
RTVSPost2010Prop37
 90
       50
102
RTVSPost2010PropOp37
 70
     1
102
RTVSPost2010Prop38
140
0.0
102
RTVSPost2010PropOp38
 70
     1
102
RTVSPost2010Prop39
140
1.0
102
RTVSPost2010PropOp39
 70
     1
102
RTVSPost2010Prop40
 90
        0
102
RTVSPost2010PropOp40
 70
     1
102
RTVSPost2010Prop41ColorIndex
 90
       18
102
RTVSPost2010Prop41ColorRGB
 90
        0
102
RTVSPost2010PropOp41
 70
     1
102
RTVSPost2010Prop42
 90
       50
102
RTVSPost2010PropOp42
 70
     1
102
RTVSPost2010Prop43
 90
        3
102
RTVSPost2010PropOp43
 70
     1
102
RTVSPost2010Prop44ColorIndex
 90
        5
102
RTVSPost2010Prop44ColorRGB
 90
      255
102
RTVSPost2010PropOp44
 70
     1
102
RTVSPost2010Prop45
280
     0
102
RTVSPost2010PropOp45
 70
     1
102
RTVSPost2010Prop46
 90
       50
102
RTVSPost2010PropOp46
 70
     1
102
RTVSPost2010Prop47
 90
       50
102
RTVSPost2010PropOp47
 70
     1
102
RTVSPost2010Prop48
 90
       50
102
RTVSPost2010PropOp48
 70
     1
102
RTVSPost2010Prop49
280
     0
102
RTVSPost2010PropOp49
 70
     1
102
RTVSPost2010Prop50
 90
       50
102
RTVSPost2010PropOp50
 70
     1
102
RTVSPost2010Prop51ColorIndex
 90
      256
102
RTVSPost2010Prop51ColorRGB
 90
-16777216
102
RTVSPost2010PropOp51
 70
     0
102
RTVSPost2010Prop52
140
1.0
102
RTVSPost2010PropOp52
 70
     0
102
RTVSPost2010Prop53
 90
        2
102
RTVSPost2010PropOp53
 70
     1
102
RTVSPost2010Prop54
  1
strokes_ogs.tif
102
RTVSPost2010PropOp54
 70
     1
102
RTVSPost2010Prop55
280
     0
102
RTVSPost2010PropOp55
 70
     1
102
RTVSPost2010Prop56
140
1.0
102
RTVSPost2010PropOp56
 70
     1
102
RTVSPost2010Prop57
140
1.0
102
RTVSPost2010PropOp57
 70
     1
102
RTVSPropertyOp0
 70
     1
102
RTVSPropertyOp1
 70
     1
102
RTVSPropertyOp2
 70
     1
102
RTVSPropertyOp3
 70
     1
102
RTVSPropertyOp4
 70
     1
102
RTVSPropertyOp5
 70
     1
102
RTVSPropertyOp6
 70
     1
102
RTVSPropertyOp7
 70
     1
102
RTVSPropertyOp8
 70
     1
102
RTVSPropertyOp9
 70
     1
102
RTVSPropertyOp10
 70
     1
102
RTVSPropertyOp11
 70
     1
102
RTVSPropertyOp12
 70
     1
102
RTVSPropertyOp13
 70
     1
102
RTVSPropertyOp14
 70
     1
102
RTVSPropertyOp15
 70
     1
102
RTVSPropertyOp16
 70
     1
102
RTVSPropertyOp17
 70
     1
102
RTVSPropertyOp18
 70
     1
102
RTVSPropertyOp19
 70
     1
102
RTVSPropertyOp20
 70
     1
102
RTVSPropertyOp21
 70
     1
102
RTVSPropertyOp22
 70
     1
102
RTVSPropertyOp23
 70
     1
102
RTVSPropertyOp24
 70
     1
102
RTVSPropertyOp25
 70
     1
102
RTVSPropertyOp26
 70
     1
102
RTVSPropertyOp27
 70
     1
102
RTVSPropertyOp28
 70
     1
102
RTVSPropertyOp29
 70
     1
102
RTVSPropertyOp30
 70
     1
102
RTVSPropertyOp31
 70
     1
102
RTVSPropertyOp32
 70
     1
102
RTVSPropertyOp33
 70
     1
102
RTVSPropertyOp34
 70
     1
102
RTVSPropertyOp35
 70
     1
102
RTVSPropertyOp36
 70
     1
102
RTVSPropertyOp37
 70
     1
102
RTVSPropertyOp38
 70
     1
102
RTVSPropertyOp39
 70
     1
102
RTVSPropertyOp40
 70
     1
102
RTVSPropertyOp41
 70
     1
102
RTVSPropertyOp42
 70
     1
102
RTVSPropertyOp43
 70
     1
102
RTVSPropertyOp44
 70
     1
102
RTVSPropertyOp45
 70
     1
102
RTVSPropertyOp46
 70
     1
102
RTVSPropertyOp47
 70
     1
102
RTVSPropertyOp48
 70
     1
102
RTVSPropertyOp49
 70
     1
102
RTVSPropertyOp50
 70
     1
102
RTVSPropertyOp51
 70
     0
102
RTVSPropertyOp52
 70
     0
102
RTVSPropertyOp53
 70
     1
102
RTVSPropertyOp54
 70
     1
102
RTVSPropertyOp55
 70
     1
102
RTVSPropertyOp56
 70
     1
102
RTVSPropertyOp57
 70
     1
102
RTVSPropertyOp58
 70
     1
102
RTVSPropertyOp59
 70
     1
102
RTVSPropertyOp60
 70
     1
102
RTVSPropertyOp61
 70
     1
102
RTVSPropertyOp62
 70
     1
  0
XRECORD
  5
426
102
{ACAD_REACTORS
330
425
102
}
330
425
100
AcDbXrecord
280
     1
102
RTVSPost2010Prop28
280
     0
102
RTVSPost2010PropOp28
 70
     1
102
RTVSPost2010Prop29
280
     1
102
RTVSPost2010PropOp29
 70
     1
102
RTVSPost2010Prop30
280
     1
102
RTVSPost2010PropOp30
 70
     1
102
RTVSPost2010Prop31
280
     0
102
RTVSPost2010PropOp31
 70
     1
102
RTVSPost2010Prop32
280
     0
102
RTVSPost2010PropOp32
 70
     1
102
RTVSPost2010Prop33
280
     0
102
RTVSPost2010PropOp33
 70
     1
102
RTVSPost2010Prop34
280
     0
102
RTVSPost2010PropOp34
 70
     1
102
RTVSPost2010Prop35
280
     0
102
RTVSPost2010PropOp35
 70
     1
102
RTVSPost2010Prop36
280
     0
102
RTVSPost2010PropOp36
 70
     1
102
RTVSPost2010Prop37
 90
       50
102
RTVSPost2010PropOp37
 70
     0
102
RTVSPost2010Prop38
140
0.0
102
RTVSPost2010PropOp38
 70
     0
102
RTVSPost2010Prop39
140
1.0
102
RTVSPost2010PropOp39
 70
     0
102
RTVSPost2010Prop40
 90
        0
102
RTVSPost2010PropOp40
 70
     0
102
RTVSPost2010Prop41ColorIndex
 90
       18
102
RTVSPost2010Prop41ColorRGB
 90
        0
102
RTVSPost2010PropOp41
 70
     0
102
RTVSPost2010Prop42
 90
       50
102
RTVSPost2010PropOp42
 70
     0
102
RTVSPost2010Prop43
 90
        3
102
RTVSPost2010PropOp43
 70
     0
102
RTVSPost2010Prop44ColorIndex
 90
        5
102
RTVSPost2010Prop44ColorRGB
 90
      255
102
RTVSPost2010PropOp44
 70
     0
102
RTVSPost2010Prop45
280
     0
102
RTVSPost2010PropOp45
 70
     1
102
RTVSPost2010Prop46
 90
       50
102
RTVSPost2010PropOp46
 70
     0
102
RTVSPost2010Prop47
 90
       50
102
RTVSPost2010PropOp47
 70
     0
102
RTVSPost2010Prop48
 90
       50
102
RTVSPost2010PropOp48
 70
     0
102
RTVSPost2010Prop49
280
     0
102
RTVSPost2010PropOp49
 70
     1
102
RTVSPost2010Prop50
 90
       50
102
RTVSPost2010PropOp50
 70
     0
102
RTVSPost2010Prop51ColorIndex
 90
      256
102
RTVSPost2010Prop51ColorRGB
 90
-16777216
102
RTVSPost2010PropOp51
 70
     0
102
RTVSPost2010Prop52
140
1.0
102
RTVSPost2010PropOp52
 70
     0
102
RTVSPost2010Prop53
 90
        2
102
RTVSPost2010PropOp53
 70
     0
102
RTVSPost2010Prop54
  1
strokes_ogs.tif
102
RTVSPost2010PropOp54
 70
     0
102
RTVSPost2010Prop55
280
     0
102
RTVSPost2010PropOp55
 70
     1
102
RTVSPost2010Prop56
140
1.0
102
RTVSPost2010PropOp56
 70
     0
102
RTVSPost2010Prop57
140
1.0
102
RTVSPost2010PropOp57
 70
     0
102
RTVSPropertyOp0
 70
     0
102
RTVSPropertyOp1
 70
     0
102
RTVSPropertyOp2
 70
     0
102
RTVSPropertyOp3
 70
     0
102
RTVSPropertyOp4
 70
     0
102
RTVSPropertyOp5
 70
     0
102
RTVSPropertyOp6
 70
     0
102
RTVSPropertyOp7
 70
     0
102
RTVSPropertyOp8
 70
     0
102
RTVSPropertyOp9
 70
     0
102
RTVSPropertyOp10
 70
     0
102
RTVSPropertyOp11
 70
     0
102
RTVSPropertyOp12
 70
     0
102
RTVSPropertyOp13
 70
     0
102
RTVSPropertyOp14
 70
     2
102
RTVSPropertyOp15
 70
     0
102
RTVSPropertyOp16
 70
     0
102
RTVSPropertyOp17
 70
     0
102
RTVSPropertyOp18
 70
     0
102
RTVSPropertyOp19
 70
     0
102
RTVSPropertyOp20
 70
     0
102
RTVSPropertyOp21
 70
     0
102
RTVSPropertyOp22
 70
     0
102
RTVSPropertyOp23
 70
     0
102
RTVSPropertyOp24
 70
     0
102
RTVSPropertyOp25
 70
     0
102
RTVSPropertyOp26
 70
     0
102
RTVSPropertyOp27
 70
     0
102
RTVSPropertyOp28
 70
     1
102
RTVSPropertyOp29
 70
     1
102
RTVSPropertyOp30
 70
     1
102
RTVSPropertyOp31
 70
     1
102
RTVSPropertyOp32
 70
     1
102
RTVSPropertyOp33
 70
     1
102
RTVSPropertyOp34
 70
     1
102
RTVSPropertyOp35
 70
     1
102
RTVSPropertyOp36
 70
     1
102
RTVSPropertyOp37
 70
     0
102
RTVSPropertyOp38
 70
     0
102
RTVSPropertyOp39
 70
     0
102
RTVSPropertyOp40
 70
     0
102
RTVSPropertyOp41
 70
     0
102
RTVSPropertyOp42
 70
     0
102
RTVSPropertyOp43
 70
     0
102
RTVSPropertyOp44
 70
     0
102
RTVSPropertyOp45
 70
     1
102
RTVSPropertyOp46
 70
     0
102
RTVSPropertyOp47
 70
     0
102
RTVSPropertyOp48
 70
     0
102
RTVSPropertyOp49
 70
     1
102
RTVSPropertyOp50
 70
     0
102
RTVSPropertyOp51
 70
     0
102
RTVSPropertyOp52
 70
     0
102
RTVSPropertyOp53
 70
     0
102
RTVSPropertyOp54
 70
     0
102
RTVSPropertyOp55
 70
     1
102
RTVSPropertyOp56
 70
     0
102
RTVSPropertyOp57
 70
     0
102
RTVSPropertyOp58
 70
     0
102
RTVSPropertyOp59
 70
     0
102
RTVSPropertyOp60
 70
     0
102
RTVSPropertyOp61
 70
     0
102
RTVSPropertyOp62
 70
     0
  0
XRECORD
  5
414
102
{ACAD_REACTORS
330
413
102
}
330
413
100
AcDbXrecord
280
     1
102
RTVSPost2010Prop28
280
     0
102
RTVSPost2010PropOp28
 70
     1
102
RTVSPost2010Prop29
280
     1
102
RTVSPost2010PropOp29
 70
     1
102
RTVSPost2010Prop30
280
     1
102
RTVSPost2010PropOp30
 70
     1
102
RTVSPost2010Prop31
280
     0
102
RTVSPost2010PropOp31
 70
     1
102
RTVSPost2010Prop32
280
     0
102
RTVSPost2010PropOp32
 70
     1
102
RTVSPost2010Prop33
280
     0
102
RTVSPost2010PropOp33
 70
     1
102
RTVSPost2010Prop34
280
     0
102
RTVSPost2010PropOp34
 70
     1
102
RTVSPost2010Prop35
280
     0
102
RTVSPost2010PropOp35
 70
     1
102
RTVSPost2010Prop36
280
     0
102
RTVSPost2010PropOp36
 70
     1
102
RTVSPost2010Prop37
 90
       50
102
RTVSPost2010PropOp37
 70
     1
102
RTVSPost2010Prop38
140
0.0
102
RTVSPost2010PropOp38
 70
     1
102
RTVSPost2010Prop39
140
1.0
102
RTVSPost2010PropOp39
 70
     1
102
RTVSPost2010Prop40
 90
        0
102
RTVSPost2010PropOp40
 70
     1
102
RTVSPost2010Prop41ColorIndex
 90
       18
102
RTVSPost2010Prop41ColorRGB
 90
        0
102
RTVSPost2010PropOp41
 70
     1
102
RTVSPost2010Prop42
 90
       50
102
RTVSPost2010PropOp42
 70
     1
102
RTVSPost2010Prop43
 90
        3
102
RTVSPost2010PropOp43
 70
     1
102
RTVSPost2010Prop44ColorIndex
 90
        5
102
RTVSPost2010Prop44ColorRGB
 90
      255
102
RTVSPost2010PropOp44
 70
     1
102
RTVSPost2010Prop45
280
     0
102
RTVSPost2010PropOp45
 70
     1
102
RTVSPost2010Prop46
 90
       50
102
RTVSPost2010PropOp46
 70
     1
102
RTVSPost2010Prop47
 90
       50
102
RTVSPost2010PropOp47
 70
     1
102
RTVSPost2010Prop48
 90
       50
102
RTVSPost2010PropOp48
 70
     1
102
RTVSPost2010Prop49
280
     0
102
RTVSPost2010PropOp49
 70
     1
102
RTVSPost2010Prop50
 90
       50
102
RTVSPost2010PropOp50
 70
     1
102
RTVSPost2010Prop51ColorIndex
 90
      256
102
RTVSPost2010Prop51ColorRGB
 90
-16777216
102
RTVSPost2010PropOp51
 70
     0
102
RTVSPost2010Prop52
140
1.0
102
RTVSPost2010PropOp52
 70
     0
102
RTVSPost2010Prop53
 90
        2
102
RTVSPost2010PropOp53
 70
     1
102
RTVSPost2010Prop54
  1
strokes_ogs.tif
102
RTVSPost2010PropOp54
 70
     1
102
RTVSPost2010Prop55
280
     0
102
RTVSPost2010PropOp55
 70
     1
102
RTVSPost2010Prop56
140
1.0
102
RTVSPost2010PropOp56
 70
     1
102
RTVSPost2010Prop57
140
1.0
102
RTVSPost2010PropOp57
 70
     1
102
RTVSPropertyOp0
 70
     1
102
RTVSPropertyOp1
 70
     1
102
RTVSPropertyOp2
 70
     1
102
RTVSPropertyOp3
 70
     1
102
RTVSPropertyOp4
 70
     1
102
RTVSPropertyOp5
 70
     1
102
RTVSPropertyOp6
 70
     1
102
RTVSPropertyOp7
 70
     1
102
RTVSPropertyOp8
 70
     1
102
RTVSPropertyOp9
 70
     1
102
RTVSPropertyOp10
 70
     1
102
RTVSPropertyOp11
 70
     1
102
RTVSPropertyOp12
 70
     1
102
RTVSPropertyOp13
 70
     1
102
RTVSPropertyOp14
 70
     1
102
RTVSPropertyOp15
 70
     1
102
RTVSPropertyOp16
 70
     1
102
RTVSPropertyOp17
 70
     1
102
RTVSPropertyOp18
 70
     1
102
RTVSPropertyOp19
 70
     1
102
RTVSPropertyOp20
 70
     1
102
RTVSPropertyOp21
 70
     1
102
RTVSPropertyOp22
 70
     1
102
RTVSPropertyOp23
 70
     1
102
RTVSPropertyOp24
 70
     1
102
RTVSPropertyOp25
 70
     1
102
RTVSPropertyOp26
 70
     1
102
RTVSPropertyOp27
 70
     1
102
RTVSPropertyOp28
 70
     1
102
RTVSPropertyOp29
 70
     1
102
RTVSPropertyOp30
 70
     1
102
RTVSPropertyOp31
 70
     1
102
RTVSPropertyOp32
 70
     1
102
RTVSPropertyOp33
 70
     1
102
RTVSPropertyOp34
 70
     1
102
RTVSPropertyOp35
 70
     1
102
RTVSPropertyOp36
 70
     1
102
RTVSPropertyOp37
 70
     1
102
RTVSPropertyOp38
 70
     1
102
RTVSPropertyOp39
 70
     1
102
RTVSPropertyOp40
 70
     1
102
RTVSPropertyOp41
 70
     1
102
RTVSPropertyOp42
 70
     1
102
RTVSPropertyOp43
 70
     1
102
RTVSPropertyOp44
 70
     1
102
RTVSPropertyOp45
 70
     1
102
RTVSPropertyOp46
 70
     1
102
RTVSPropertyOp47
 70
     1
102
RTVSPropertyOp48
 70
     1
102
RTVSPropertyOp49
 70
     1
102
RTVSPropertyOp50
 70
     1
102
RTVSPropertyOp51
 70
     0
102
RTVSPropertyOp52
 70
     0
102
RTVSPropertyOp53
 70
     1
102
RTVSPropertyOp54
 70
     1
102
RTVSPropertyOp55
 70
     1
102
RTVSPropertyOp56
 70
     1
102
RTVSPropertyOp57
 70
     1
102
RTVSPropertyOp58
 70
     1
102
RTVSPropertyOp59
 70
     1
102
RTVSPropertyOp60
 70
     1
102
RTVSPropertyOp61
 70
     1
102
RTVSPropertyOp62
 70
     1
  0
XRECORD
  5
3F8
102
{ACAD_REACTORS
330
3F7
102
}
330
3F7
100
AcDbXrecord
280
     1
102
RTVSPost2010Prop28
280
     0
102
RTVSPost2010PropOp28
 70
     1
102
RTVSPost2010Prop29
280
     1
102
RTVSPost2010PropOp29
 70
     1
102
RTVSPost2010Prop30
280
     1
102
RTVSPost2010PropOp30
 70
     1
102
RTVSPost2010Prop31
280
     0
102
RTVSPost2010PropOp31
 70
     1
102
RTVSPost2010Prop32
280
     0
102
RTVSPost2010PropOp32
 70
     1
102
RTVSPost2010Prop33
280
     0
102
RTVSPost2010PropOp33
 70
     1
102
RTVSPost2010Prop34
280
     0
102
RTVSPost2010PropOp34
 70
     1
102
RTVSPost2010Prop35
280
     0
102
RTVSPost2010PropOp35
 70
     1
102
RTVSPost2010Prop36
280
     0
102
RTVSPost2010PropOp36
 70
     1
102
RTVSPost2010Prop37
 90
       50
102
RTVSPost2010PropOp37
 70
     1
102
RTVSPost2010Prop38
140
0.0
102
RTVSPost2010PropOp38
 70
     1
102
RTVSPost2010Prop39
140
1.0
102
RTVSPost2010PropOp39
 70
     1
102
RTVSPost2010Prop40
 90
        0
102
RTVSPost2010PropOp40
 70
     1
102
RTVSPost2010Prop41ColorIndex
 90
       18
102
RTVSPost2010Prop41ColorRGB
 90
        0
102
RTVSPost2010PropOp41
 70
     1
102
RTVSPost2010Prop42
 90
       50
102
RTVSPost2010PropOp42
 70
     1
102
RTVSPost2010Prop43
 90
        3
102
RTVSPost2010PropOp43
 70
     1
102
RTVSPost2010Prop44ColorIndex
 90
        5
102
RTVSPost2010Prop44ColorRGB
 90
      255
102
RTVSPost2010PropOp44
 70
     1
102
RTVSPost2010Prop45
280
     0
102
RTVSPost2010PropOp45
 70
     1
102
RTVSPost2010Prop46
 90
       50
102
RTVSPost2010PropOp46
 70
     1
102
RTVSPost2010Prop47
 90
       50
102
RTVSPost2010PropOp47
 70
     1
102
RTVSPost2010Prop48
 90
       50
102
RTVSPost2010PropOp48
 70
     1
102
RTVSPost2010Prop49
280
     0
102
RTVSPost2010PropOp49
 70
     1
102
RTVSPost2010Prop50
 90
       50
102
RTVSPost2010PropOp50
 70
     1
102
RTVSPost2010Prop51ColorIndex
 90
      256
102
RTVSPost2010Prop51ColorRGB
 90
-16777216
102
RTVSPost2010PropOp51
 70
     0
102
RTVSPost2010Prop52
140
1.0
102
RTVSPost2010PropOp52
 70
     0
102
RTVSPost2010Prop53
 90
        2
102
RTVSPost2010PropOp53
 70
     1
102
RTVSPost2010Prop54
  1
strokes_ogs.tif
102
RTVSPost2010PropOp54
 70
     1
102
RTVSPost2010Prop55
280
     0
102
RTVSPost2010PropOp55
 70
     1
102
RTVSPost2010Prop56
140
1.0
102
RTVSPost2010PropOp56
 70
     1
102
RTVSPost2010Prop57
140
1.0
102
RTVSPost2010PropOp57
 70
     1
102
RTVSPropertyOp0
 70
     1
102
RTVSPropertyOp1
 70
     1
102
RTVSPropertyOp2
 70
     1
102
RTVSPropertyOp3
 70
     1
102
RTVSPropertyOp4
 70
     1
102
RTVSPropertyOp5
 70
     1
102
RTVSPropertyOp6
 70
     1
102
RTVSPropertyOp7
 70
     1
102
RTVSPropertyOp8
 70
     1
102
RTVSPropertyOp9
 70
     1
102
RTVSPropertyOp10
 70
     1
102
RTVSPropertyOp11
 70
     1
102
RTVSPropertyOp12
 70
     1
102
RTVSPropertyOp13
 70
     1
102
RTVSPropertyOp14
 70
     1
102
RTVSPropertyOp15
 70
     1
102
RTVSPropertyOp16
 70
     1
102
RTVSPropertyOp17
 70
     1
102
RTVSPropertyOp18
 70
     1
102
RTVSPropertyOp19
 70
     1
102
RTVSPropertyOp20
 70
     1
102
RTVSPropertyOp21
 70
     1
102
RTVSPropertyOp22
 70
     1
102
RTVSPropertyOp23
 70
     1
102
RTVSPropertyOp24
 70
     1
102
RTVSPropertyOp25
 70
     1
102
RTVSPropertyOp26
 70
     1
102
RTVSPropertyOp27
 70
     1
102
RTVSPropertyOp28
 70
     1
102
RTVSPropertyOp29
 70
     1
102
RTVSPropertyOp30
 70
     1
102
RTVSPropertyOp31
 70
     1
102
RTVSPropertyOp32
 70
     1
102
RTVSPropertyOp33
 70
     1
102
RTVSPropertyOp34
 70
     1
102
RTVSPropertyOp35
 70
     1
102
RTVSPropertyOp36
 70
     1
102
RTVSPropertyOp37
 70
     1
102
RTVSPropertyOp38
 70
     1
102
RTVSPropertyOp39
 70
     1
102
RTVSPropertyOp40
 70
     1
102
RTVSPropertyOp41
 70
     1
102
RTVSPropertyOp42
 70
     1
102
RTVSPropertyOp43
 70
     1
102
RTVSPropertyOp44
 70
     1
102
RTVSPropertyOp45
 70
     1
102
RTVSPropertyOp46
 70
     1
102
RTVSPropertyOp47
 70
     1
102
RTVSPropertyOp48
 70
     1
102
RTVSPropertyOp49
 70
     1
102
RTVSPropertyOp50
 70
     1
102
RTVSPropertyOp51
 70
     0
102
RTVSPropertyOp52
 70
     0
102
RTVSPropertyOp53
 70
     1
102
RTVSPropertyOp54
 70
     1
102
RTVSPropertyOp55
 70
     1
102
RTVSPropertyOp56
 70
     1
102
RTVSPropertyOp57
 70
     1
102
RTVSPropertyOp58
 70
     1
102
RTVSPropertyOp59
 70
     1
102
RTVSPropertyOp60
 70
     1
102
RTVSPropertyOp61
 70
     1
102
RTVSPropertyOp62
 70
     1
  0
XRECORD
  5
3FA
102
{ACAD_REACTORS
330
3F9
102
}
330
3F9
100
AcDbXrecord
280
     1
102
RTVSPost2010Prop28
280
     0
102
RTVSPost2010PropOp28
 70
     1
102
RTVSPost2010Prop29
280
     1
102
RTVSPost2010PropOp29
 70
     1
102
RTVSPost2010Prop30
280
     1
102
RTVSPost2010PropOp30
 70
     1
102
RTVSPost2010Prop31
280
     0
102
RTVSPost2010PropOp31
 70
     1
102
RTVSPost2010Prop32
280
     0
102
RTVSPost2010PropOp32
 70
     1
102
RTVSPost2010Prop33
280
     0
102
RTVSPost2010PropOp33
 70
     1
102
RTVSPost2010Prop34
280
     0
102
RTVSPost2010PropOp34
 70
     1
102
RTVSPost2010Prop35
280
     0
102
RTVSPost2010PropOp35
 70
     1
102
RTVSPost2010Prop36
280
     0
102
RTVSPost2010PropOp36
 70
     1
102
RTVSPost2010Prop37
 90
       50
102
RTVSPost2010PropOp37
 70
     1
102
RTVSPost2010Prop38
140
0.0
102
RTVSPost2010PropOp38
 70
     1
102
RTVSPost2010Prop39
140
1.0
102
RTVSPost2010PropOp39
 70
     1
102
RTVSPost2010Prop40
 90
        0
102
RTVSPost2010PropOp40
 70
     1
102
RTVSPost2010Prop41ColorIndex
 90
       18
102
RTVSPost2010Prop41ColorRGB
 90
        0
102
RTVSPost2010PropOp41
 70
     1
102
RTVSPost2010Prop42
 90
       50
102
RTVSPost2010PropOp42
 70
     1
102
RTVSPost2010Prop43
 90
        3
102
RTVSPost2010PropOp43
 70
     1
102
RTVSPost2010Prop44ColorIndex
 90
        5
102
RTVSPost2010Prop44ColorRGB
 90
      255
102
RTVSPost2010PropOp44
 70
     1
102
RTVSPost2010Prop45
280
     0
102
RTVSPost2010PropOp45
 70
     1
102
RTVSPost2010Prop46
 90
       50
102
RTVSPost2010PropOp46
 70
     1
102
RTVSPost2010Prop47
 90
       50
102
RTVSPost2010PropOp47
 70
     1
102
RTVSPost2010Prop48
 90
       50
102
RTVSPost2010PropOp48
 70
     1
102
RTVSPost2010Prop49
280
     0
102
RTVSPost2010PropOp49
 70
     1
102
RTVSPost2010Prop50
 90
       50
102
RTVSPost2010PropOp50
 70
     1
102
RTVSPost2010Prop51ColorIndex
 90
      256
102
RTVSPost2010Prop51ColorRGB
 90
-16777216
102
RTVSPost2010PropOp51
 70
     0
102
RTVSPost2010Prop52
140
1.0
102
RTVSPost2010PropOp52
 70
     0
102
RTVSPost2010Prop53
 90
        2
102
RTVSPost2010PropOp53
 70
     1
102
RTVSPost2010Prop54
  1
strokes_ogs.tif
102
RTVSPost2010PropOp54
 70
     1
102
RTVSPost2010Prop55
280
     0
102
RTVSPost2010PropOp55
 70
     1
102
RTVSPost2010Prop56
140
1.0
102
RTVSPost2010PropOp56
 70
     1
102
RTVSPost2010Prop57
140
1.0
102
RTVSPost2010PropOp57
 70
     1
102
RTVSPropertyOp0
 70
     1
102
RTVSPropertyOp1
 70
     1
102
RTVSPropertyOp2
 70
     1
102
RTVSPropertyOp3
 70
     1
102
RTVSPropertyOp4
 70
     1
102
RTVSPropertyOp5
 70
     1
102
RTVSPropertyOp6
 70
     1
102
RTVSPropertyOp7
 70
     1
102
RTVSPropertyOp8
 70
     1
102
RTVSPropertyOp9
 70
     1
102
RTVSPropertyOp10
 70
     1
102
RTVSPropertyOp11
 70
     1
102
RTVSPropertyOp12
 70
     1
102
RTVSPropertyOp13
 70
     1
102
RTVSPropertyOp14
 70
     1
102
RTVSPropertyOp15
 70
     1
102
RTVSPropertyOp16
 70
     1
102
RTVSPropertyOp17
 70
     1
102
RTVSPropertyOp18
 70
     1
102
RTVSPropertyOp19
 70
     1
102
RTVSPropertyOp20
 70
     1
102
RTVSPropertyOp21
 70
     1
102
RTVSPropertyOp22
 70
     1
102
RTVSPropertyOp23
 70
     1
102
RTVSPropertyOp24
 70
     1
102
RTVSPropertyOp25
 70
     1
102
RTVSPropertyOp26
 70
     1
102
RTVSPropertyOp27
 70
     1
102
RTVSPropertyOp28
 70
     1
102
RTVSPropertyOp29
 70
     1
102
RTVSPropertyOp30
 70
     1
102
RTVSPropertyOp31
 70
     1
102
RTVSPropertyOp32
 70
     1
102
RTVSPropertyOp33
 70
     1
102
RTVSPropertyOp34
 70
     1
102
RTVSPropertyOp35
 70
     1
102
RTVSPropertyOp36
 70
     1
102
RTVSPropertyOp37
 70
     1
102
RTVSPropertyOp38
 70
     1
102
RTVSPropertyOp39
 70
     1
102
RTVSPropertyOp40
 70
     1
102
RTVSPropertyOp41
 70
     1
102
RTVSPropertyOp42
 70
     1
102
RTVSPropertyOp43
 70
     1
102
RTVSPropertyOp44
 70
     1
102
RTVSPropertyOp45
 70
     1
102
RTVSPropertyOp46
 70
     1
102
RTVSPropertyOp47
 70
     1
102
RTVSPropertyOp48
 70
     1
102
RTVSPropertyOp49
 70
     1
102
RTVSPropertyOp50
 70
     1
102
RTVSPropertyOp51
 70
     0
102
RTVSPropertyOp52
 70
     0
102
RTVSPropertyOp53
 70
     1
102
RTVSPropertyOp54
 70
     1
102
RTVSPropertyOp55
 70
     1
102
RTVSPropertyOp56
 70
     1
102
RTVSPropertyOp57
 70
     1
102
RTVSPropertyOp58
 70
     1
102
RTVSPropertyOp59
 70
     1
102
RTVSPropertyOp60
 70
     1
102
RTVSPropertyOp61
 70
     1
102
RTVSPropertyOp62
 70
     1
  0
XRECORD
  5
3FC
102
{ACAD_REACTORS
330
3FB
102
}
330
3FB
100
AcDbXrecord
280
     1
102
RTVSPost2010Prop28
280
     0
102
RTVSPost2010PropOp28
 70
     1
102
RTVSPost2010Prop29
280
     1
102
RTVSPost2010PropOp29
 70
     1
102
RTVSPost2010Prop30
280
     1
102
RTVSPost2010PropOp30
 70
     1
102
RTVSPost2010Prop31
280
     0
102
RTVSPost2010PropOp31
 70
     1
102
RTVSPost2010Prop32
280
     0
102
RTVSPost2010PropOp32
 70
     1
102
RTVSPost2010Prop33
280
     0
102
RTVSPost2010PropOp33
 70
     1
102
RTVSPost2010Prop34
280
     0
102
RTVSPost2010PropOp34
 70
     1
102
RTVSPost2010Prop35
280
     0
102
RTVSPost2010PropOp35
 70
     1
102
RTVSPost2010Prop36
280
     0
102
RTVSPost2010PropOp36
 70
     1
102
RTVSPost2010Prop37
 90
       50
102
RTVSPost2010PropOp37
 70
     1
102
RTVSPost2010Prop38
140
0.0
102
RTVSPost2010PropOp38
 70
     1
102
RTVSPost2010Prop39
140
1.0
102
RTVSPost2010PropOp39
 70
     1
102
RTVSPost2010Prop40
 90
        0
102
RTVSPost2010PropOp40
 70
     1
102
RTVSPost2010Prop41ColorIndex
 90
       18
102
RTVSPost2010Prop41ColorRGB
 90
        0
102
RTVSPost2010PropOp41
 70
     1
102
RTVSPost2010Prop42
 90
       50
102
RTVSPost2010PropOp42
 70
     1
102
RTVSPost2010Prop43
 90
        3
102
RTVSPost2010PropOp43
 70
     1
102
RTVSPost2010Prop44ColorIndex
 90
        5
102
RTVSPost2010Prop44ColorRGB
 90
      255
102
RTVSPost2010PropOp44
 70
     1
102
RTVSPost2010Prop45
280
     0
102
RTVSPost2010PropOp45
 70
     1
102
RTVSPost2010Prop46
 90
       50
102
RTVSPost2010PropOp46
 70
     1
102
RTVSPost2010Prop47
 90
       50
102
RTVSPost2010PropOp47
 70
     1
102
RTVSPost2010Prop48
 90
       50
102
RTVSPost2010PropOp48
 70
     1
102
RTVSPost2010Prop49
280
     0
102
RTVSPost2010PropOp49
 70
     1
102
RTVSPost2010Prop50
 90
       50
102
RTVSPost2010PropOp50
 70
     1
102
RTVSPost2010Prop51ColorIndex
 90
      256
102
RTVSPost2010Prop51ColorRGB
 90
-16777216
102
RTVSPost2010PropOp51
 70
     0
102
RTVSPost2010Prop52
140
1.0
102
RTVSPost2010PropOp52
 70
     0
102
RTVSPost2010Prop53
 90
        2
102
RTVSPost2010PropOp53
 70
     1
102
RTVSPost2010Prop54
  1
strokes_ogs.tif
102
RTVSPost2010PropOp54
 70
     1
102
RTVSPost2010Prop55
280
     0
102
RTVSPost2010PropOp55
 70
     1
102
RTVSPost2010Prop56
140
1.0
102
RTVSPost2010PropOp56
 70
     1
102
RTVSPost2010Prop57
140
1.0
102
RTVSPost2010PropOp57
 70
     1
102
RTVSPropertyOp0
 70
     1
102
RTVSPropertyOp1
 70
     1
102
RTVSPropertyOp2
 70
     1
102
RTVSPropertyOp3
 70
     1
102
RTVSPropertyOp4
 70
     1
102
RTVSPropertyOp5
 70
     1
102
RTVSPropertyOp6
 70
     1
102
RTVSPropertyOp7
 70
     1
102
RTVSPropertyOp8
 70
     1
102
RTVSPropertyOp9
 70
     1
102
RTVSPropertyOp10
 70
     1
102
RTVSPropertyOp11
 70
     1
102
RTVSPropertyOp12
 70
     1
102
RTVSPropertyOp13
 70
     1
102
RTVSPropertyOp14
 70
     1
102
RTVSPropertyOp15
 70
     1
102
RTVSPropertyOp16
 70
     1
102
RTVSPropertyOp17
 70
     1
102
RTVSPropertyOp18
 70
     1
102
RTVSPropertyOp19
 70
     1
102
RTVSPropertyOp20
 70
     1
102
RTVSPropertyOp21
 70
     1
102
RTVSPropertyOp22
 70
     1
102
RTVSPropertyOp23
 70
     1
102
RTVSPropertyOp24
 70
     1
102
RTVSPropertyOp25
 70
     1
102
RTVSPropertyOp26
 70
     1
102
RTVSPropertyOp27
 70
     1
102
RTVSPropertyOp28
 70
     1
102
RTVSPropertyOp29
 70
     1
102
RTVSPropertyOp30
 70
     1
102
RTVSPropertyOp31
 70
     1
102
RTVSPropertyOp32
 70
     1
102
RTVSPropertyOp33
 70
     1
102
RTVSPropertyOp34
 70
     1
102
RTVSPropertyOp35
 70
     1
102
RTVSPropertyOp36
 70
     1
102
RTVSPropertyOp37
 70
     1
102
RTVSPropertyOp38
 70
     1
102
RTVSPropertyOp39
 70
     1
102
RTVSPropertyOp40
 70
     1
102
RTVSPropertyOp41
 70
     1
102
RTVSPropertyOp42
 70
     1
102
RTVSPropertyOp43
 70
     1
102
RTVSPropertyOp44
 70
     1
102
RTVSPropertyOp45
 70
     1
102
RTVSPropertyOp46
 70
     1
102
RTVSPropertyOp47
 70
     1
102
RTVSPropertyOp48
 70
     1
102
RTVSPropertyOp49
 70
     1
102
RTVSPropertyOp50
 70
     1
102
RTVSPropertyOp51
 70
     0
102
RTVSPropertyOp52
 70
     0
102
RTVSPropertyOp53
 70
     1
102
RTVSPropertyOp54
 70
     1
102
RTVSPropertyOp55
 70
     1
102
RTVSPropertyOp56
 70
     1
102
RTVSPropertyOp57
 70
     1
102
RTVSPropertyOp58
 70
     1
102
RTVSPropertyOp59
 70
     1
102
RTVSPropertyOp60
 70
     1
102
RTVSPropertyOp61
 70
     1
102
RTVSPropertyOp62
 70
     1
  0
XRECORD
  5
3FE
102
{ACAD_REACTORS
330
3FD
102
}
330
3FD
100
AcDbXrecord
280
     1
102
RTVSPost2010Prop28
280
     0
102
RTVSPost2010PropOp28
 70
     1
102
RTVSPost2010Prop29
280
     1
102
RTVSPost2010PropOp29
 70
     1
102
RTVSPost2010Prop30
280
     1
102
RTVSPost2010PropOp30
 70
     1
102
RTVSPost2010Prop31
280
     0
102
RTVSPost2010PropOp31
 70
     1
102
RTVSPost2010Prop32
280
     0
102
RTVSPost2010PropOp32
 70
     1
102
RTVSPost2010Prop33
280
     0
102
RTVSPost2010PropOp33
 70
     1
102
RTVSPost2010Prop34
280
     0
102
RTVSPost2010PropOp34
 70
     1
102
RTVSPost2010Prop35
280
     0
102
RTVSPost2010PropOp35
 70
     1
102
RTVSPost2010Prop36
280
     0
102
RTVSPost2010PropOp36
 70
     1
102
RTVSPost2010Prop37
 90
       50
102
RTVSPost2010PropOp37
 70
     1
102
RTVSPost2010Prop38
140
0.0
102
RTVSPost2010PropOp38
 70
     1
102
RTVSPost2010Prop39
140
1.0
102
RTVSPost2010PropOp39
 70
     1
102
RTVSPost2010Prop40
 90
        0
102
RTVSPost2010PropOp40
 70
     1
102
RTVSPost2010Prop41ColorIndex
 90
       18
102
RTVSPost2010Prop41ColorRGB
 90
        0
102
RTVSPost2010PropOp41
 70
     1
102
RTVSPost2010Prop42
 90
       50
102
RTVSPost2010PropOp42
 70
     1
102
RTVSPost2010Prop43
 90
        3
102
RTVSPost2010PropOp43
 70
     1
102
RTVSPost2010Prop44ColorIndex
 90
        5
102
RTVSPost2010Prop44ColorRGB
 90
      255
102
RTVSPost2010PropOp44
 70
     1
102
RTVSPost2010Prop45
280
     0
102
RTVSPost2010PropOp45
 70
     1
102
RTVSPost2010Prop46
 90
       50
102
RTVSPost2010PropOp46
 70
     1
102
RTVSPost2010Prop47
 90
       50
102
RTVSPost2010PropOp47
 70
     1
102
RTVSPost2010Prop48
 90
       50
102
RTVSPost2010PropOp48
 70
     1
102
RTVSPost2010Prop49
280
     0
102
RTVSPost2010PropOp49
 70
     1
102
RTVSPost2010Prop50
 90
       50
102
RTVSPost2010PropOp50
 70
     1
102
RTVSPost2010Prop51ColorIndex
 90
      256
102
RTVSPost2010Prop51ColorRGB
 90
-16777216
102
RTVSPost2010PropOp51
 70
     0
102
RTVSPost2010Prop52
140
1.0
102
RTVSPost2010PropOp52
 70
     0
102
RTVSPost2010Prop53
 90
        2
102
RTVSPost2010PropOp53
 70
     1
102
RTVSPost2010Prop54
  1
strokes_ogs.tif
102
RTVSPost2010PropOp54
 70
     1
102
RTVSPost2010Prop55
280
     0
102
RTVSPost2010PropOp55
 70
     1
102
RTVSPost2010Prop56
140
1.0
102
RTVSPost2010PropOp56
 70
     1
102
RTVSPost2010Prop57
140
1.0
102
RTVSPost2010PropOp57
 70
     1
102
RTVSPropertyOp0
 70
     1
102
RTVSPropertyOp1
 70
     1
102
RTVSPropertyOp2
 70
     1
102
RTVSPropertyOp3
 70
     1
102
RTVSPropertyOp4
 70
     1
102
RTVSPropertyOp5
 70
     1
102
RTVSPropertyOp6
 70
     1
102
RTVSPropertyOp7
 70
     1
102
RTVSPropertyOp8
 70
     1
102
RTVSPropertyOp9
 70
     1
102
RTVSPropertyOp10
 70
     1
102
RTVSPropertyOp11
 70
     1
102
RTVSPropertyOp12
 70
     1
102
RTVSPropertyOp13
 70
     1
102
RTVSPropertyOp14
 70
     1
102
RTVSPropertyOp15
 70
     1
102
RTVSPropertyOp16
 70
     1
102
RTVSPropertyOp17
 70
     1
102
RTVSPropertyOp18
 70
     1
102
RTVSPropertyOp19
 70
     1
102
RTVSPropertyOp20
 70
     1
102
RTVSPropertyOp21
 70
     1
102
RTVSPropertyOp22
 70
     1
102
RTVSPropertyOp23
 70
     1
102
RTVSPropertyOp24
 70
     1
102
RTVSPropertyOp25
 70
     1
102
RTVSPropertyOp26
 70
     1
102
RTVSPropertyOp27
 70
     1
102
RTVSPropertyOp28
 70
     1
102
RTVSPropertyOp29
 70
     1
102
RTVSPropertyOp30
 70
     1
102
RTVSPropertyOp31
 70
     1
102
RTVSPropertyOp32
 70
     1
102
RTVSPropertyOp33
 70
     1
102
RTVSPropertyOp34
 70
     1
102
RTVSPropertyOp35
 70
     1
102
RTVSPropertyOp36
 70
     1
102
RTVSPropertyOp37
 70
     1
102
RTVSPropertyOp38
 70
     1
102
RTVSPropertyOp39
 70
     1
102
RTVSPropertyOp40
 70
     1
102
RTVSPropertyOp41
 70
     1
102
RTVSPropertyOp42
 70
     1
102
RTVSPropertyOp43
 70
     1
102
RTVSPropertyOp44
 70
     1
102
RTVSPropertyOp45
 70
     1
102
RTVSPropertyOp46
 70
     1
102
RTVSPropertyOp47
 70
     1
102
RTVSPropertyOp48
 70
     1
102
RTVSPropertyOp49
 70
     1
102
RTVSPropertyOp50
 70
     1
102
RTVSPropertyOp51
 70
     0
102
RTVSPropertyOp52
 70
     0
102
RTVSPropertyOp53
 70
     1
102
RTVSPropertyOp54
 70
     1
102
RTVSPropertyOp55
 70
     1
102
RTVSPropertyOp56
 70
     1
102
RTVSPropertyOp57
 70
     1
102
RTVSPropertyOp58
 70
     1
102
RTVSPropertyOp59
 70
     1
102
RTVSPropertyOp60
 70
     1
102
RTVSPropertyOp61
 70
     1
102
RTVSPropertyOp62
 70
     1
  0
XRECORD
  5
406
102
{ACAD_REACTORS
330
405
102
}
330
405
100
AcDbXrecord
280
     1
102
RTVSPost2010Prop28
280
     0
102
RTVSPost2010PropOp28
 70
     1
102
RTVSPost2010Prop29
280
     1
102
RTVSPost2010PropOp29
 70
     1
102
RTVSPost2010Prop30
280
     1
102
RTVSPost2010PropOp30
 70
     1
102
RTVSPost2010Prop31
280
     0
102
RTVSPost2010PropOp31
 70
     1
102
RTVSPost2010Prop32
280
     0
102
RTVSPost2010PropOp32
 70
     1
102
RTVSPost2010Prop33
280
     0
102
RTVSPost2010PropOp33
 70
     1
102
RTVSPost2010Prop34
280
     0
102
RTVSPost2010PropOp34
 70
     1
102
RTVSPost2010Prop35
280
     0
102
RTVSPost2010PropOp35
 70
     1
102
RTVSPost2010Prop36
280
     0
102
RTVSPost2010PropOp36
 70
     1
102
RTVSPost2010Prop37
 90
       50
102
RTVSPost2010PropOp37
 70
     1
102
RTVSPost2010Prop38
140
0.0
102
RTVSPost2010PropOp38
 70
     1
102
RTVSPost2010Prop39
140
1.0
102
RTVSPost2010PropOp39
 70
     1
102
RTVSPost2010Prop40
 90
        0
102
RTVSPost2010PropOp40
 70
     1
102
RTVSPost2010Prop41ColorIndex
 90
       18
102
RTVSPost2010Prop41ColorRGB
 90
        0
102
RTVSPost2010PropOp41
 70
     1
102
RTVSPost2010Prop42
 90
       50
102
RTVSPost2010PropOp42
 70
     1
102
RTVSPost2010Prop43
 90
        3
102
RTVSPost2010PropOp43
 70
     1
102
RTVSPost2010Prop44ColorIndex
 90
        5
102
RTVSPost2010Prop44ColorRGB
 90
      255
102
RTVSPost2010PropOp44
 70
     1
102
RTVSPost2010Prop45
280
     0
102
RTVSPost2010PropOp45
 70
     1
102
RTVSPost2010Prop46
 90
       50
102
RTVSPost2010PropOp46
 70
     1
102
RTVSPost2010Prop47
 90
       50
102
RTVSPost2010PropOp47
 70
     1
102
RTVSPost2010Prop48
 90
       50
102
RTVSPost2010PropOp48
 70
     1
102
RTVSPost2010Prop49
280
     0
102
RTVSPost2010PropOp49
 70
     1
102
RTVSPost2010Prop50
 90
       50
102
RTVSPost2010PropOp50
 70
     1
102
RTVSPost2010Prop51ColorIndex
 90
      256
102
RTVSPost2010Prop51ColorRGB
 90
-16777216
102
RTVSPost2010PropOp51
 70
     0
102
RTVSPost2010Prop52
140
1.0
102
RTVSPost2010PropOp52
 70
     0
102
RTVSPost2010Prop53
 90
        2
102
RTVSPost2010PropOp53
 70
     1
102
RTVSPost2010Prop54
  1
strokes_ogs.tif
102
RTVSPost2010PropOp54
 70
     1
102
RTVSPost2010Prop55
280
     0
102
RTVSPost2010PropOp55
 70
     1
102
RTVSPost2010Prop56
140
1.0
102
RTVSPost2010PropOp56
 70
     1
102
RTVSPost2010Prop57
140
1.0
102
RTVSPost2010PropOp57
 70
     1
102
RTVSPropertyOp0
 70
     1
102
RTVSPropertyOp1
 70
     1
102
RTVSPropertyOp2
 70
     1
102
RTVSPropertyOp3
 70
     1
102
RTVSPropertyOp4
 70
     1
102
RTVSPropertyOp5
 70
     1
102
RTVSPropertyOp6
 70
     1
102
RTVSPropertyOp7
 70
     1
102
RTVSPropertyOp8
 70
     1
102
RTVSPropertyOp9
 70
     1
102
RTVSPropertyOp10
 70
     1
102
RTVSPropertyOp11
 70
     1
102
RTVSPropertyOp12
 70
     1
102
RTVSPropertyOp13
 70
     1
102
RTVSPropertyOp14
 70
     1
102
RTVSPropertyOp15
 70
     1
102
RTVSPropertyOp16
 70
     1
102
RTVSPropertyOp17
 70
     1
102
RTVSPropertyOp18
 70
     1
102
RTVSPropertyOp19
 70
     1
102
RTVSPropertyOp20
 70
     1
102
RTVSPropertyOp21
 70
     1
102
RTVSPropertyOp22
 70
     1
102
RTVSPropertyOp23
 70
     1
102
RTVSPropertyOp24
 70
     1
102
RTVSPropertyOp25
 70
     1
102
RTVSPropertyOp26
 70
     1
102
RTVSPropertyOp27
 70
     1
102
RTVSPropertyOp28
 70
     1
102
RTVSPropertyOp29
 70
     1
102
RTVSPropertyOp30
 70
     1
102
RTVSPropertyOp31
 70
     1
102
RTVSPropertyOp32
 70
     1
102
RTVSPropertyOp33
 70
     1
102
RTVSPropertyOp34
 70
     1
102
RTVSPropertyOp35
 70
     1
102
RTVSPropertyOp36
 70
     1
102
RTVSPropertyOp37
 70
     1
102
RTVSPropertyOp38
 70
     1
102
RTVSPropertyOp39
 70
     1
102
RTVSPropertyOp40
 70
     1
102
RTVSPropertyOp41
 70
     1
102
RTVSPropertyOp42
 70
     1
102
RTVSPropertyOp43
 70
     1
102
RTVSPropertyOp44
 70
     1
102
RTVSPropertyOp45
 70
     1
102
RTVSPropertyOp46
 70
     1
102
RTVSPropertyOp47
 70
     1
102
RTVSPropertyOp48
 70
     1
102
RTVSPropertyOp49
 70
     1
102
RTVSPropertyOp50
 70
     1
102
RTVSPropertyOp51
 70
     0
102
RTVSPropertyOp52
 70
     0
102
RTVSPropertyOp53
 70
     1
102
RTVSPropertyOp54
 70
     1
102
RTVSPropertyOp55
 70
     1
102
RTVSPropertyOp56
 70
     1
102
RTVSPropertyOp57
 70
     1
102
RTVSPropertyOp58
 70
     1
102
RTVSPropertyOp59
 70
     1
102
RTVSPropertyOp60
 70
     1
102
RTVSPropertyOp61
 70
     1
102
RTVSPropertyOp62
 70
     1
  0
XRECORD
  5
422
102
{ACAD_REACTORS
330
421
102
}
330
421
100
AcDbXrecord
280
     1
102
RTVSPost2010Prop28
280
     0
102
RTVSPost2010PropOp28
 70
     1
102
RTVSPost2010Prop29
280
     1
102
RTVSPost2010PropOp29
 70
     1
102
RTVSPost2010Prop30
280
     1
102
RTVSPost2010PropOp30
 70
     1
102
RTVSPost2010Prop31
280
     0
102
RTVSPost2010PropOp31
 70
     1
102
RTVSPost2010Prop32
280
     0
102
RTVSPost2010PropOp32
 70
     1
102
RTVSPost2010Prop33
280
     0
102
RTVSPost2010PropOp33
 70
     1
102
RTVSPost2010Prop34
280
     0
102
RTVSPost2010PropOp34
 70
     1
102
RTVSPost2010Prop35
280
     0
102
RTVSPost2010PropOp35
 70
     1
102
RTVSPost2010Prop36
280
     0
102
RTVSPost2010PropOp36
 70
     1
102
RTVSPost2010Prop37
 90
       50
102
RTVSPost2010PropOp37
 70
     0
102
RTVSPost2010Prop38
140
0.0
102
RTVSPost2010PropOp38
 70
     0
102
RTVSPost2010Prop39
140
1.0
102
RTVSPost2010PropOp39
 70
     0
102
RTVSPost2010Prop40
 90
        0
102
RTVSPost2010PropOp40
 70
     0
102
RTVSPost2010Prop41ColorIndex
 90
       18
102
RTVSPost2010Prop41ColorRGB
 90
        0
102
RTVSPost2010PropOp41
 70
     0
102
RTVSPost2010Prop42
 90
       50
102
RTVSPost2010PropOp42
 70
     0
102
RTVSPost2010Prop43
 90
        3
102
RTVSPost2010PropOp43
 70
     0
102
RTVSPost2010Prop44ColorIndex
 90
        5
102
RTVSPost2010Prop44ColorRGB
 90
      255
102
RTVSPost2010PropOp44
 70
     0
102
RTVSPost2010Prop45
280
     0
102
RTVSPost2010PropOp45
 70
     1
102
RTVSPost2010Prop46
 90
       50
102
RTVSPost2010PropOp46
 70
     0
102
RTVSPost2010Prop47
 90
       50
102
RTVSPost2010PropOp47
 70
     0
102
RTVSPost2010Prop48
 90
       50
102
RTVSPost2010PropOp48
 70
     0
102
RTVSPost2010Prop49
280
     0
102
RTVSPost2010PropOp49
 70
     1
102
RTVSPost2010Prop50
 90
       50
102
RTVSPost2010PropOp50
 70
     0
102
RTVSPost2010Prop51ColorIndex
 90
      256
102
RTVSPost2010Prop51ColorRGB
 90
-16777216
102
RTVSPost2010PropOp51
 70
     0
102
RTVSPost2010Prop52
140
1.0
102
RTVSPost2010PropOp52
 70
     0
102
RTVSPost2010Prop53
 90
        2
102
RTVSPost2010PropOp53
 70
     0
102
RTVSPost2010Prop54
  1
strokes_ogs.tif
102
RTVSPost2010PropOp54
 70
     0
102
RTVSPost2010Prop55
280
     0
102
RTVSPost2010PropOp55
 70
     1
102
RTVSPost2010Prop56
140
1.0
102
RTVSPost2010PropOp56
 70
     0
102
RTVSPost2010Prop57
140
1.0
102
RTVSPost2010PropOp57
 70
     0
102
RTVSPropertyOp0
 70
     0
102
RTVSPropertyOp1
 70
     0
102
RTVSPropertyOp2
 70
     0
102
RTVSPropertyOp3
 70
     0
102
RTVSPropertyOp4
 70
     0
102
RTVSPropertyOp5
 70
     0
102
RTVSPropertyOp6
 70
     0
102
RTVSPropertyOp7
 70
     0
102
RTVSPropertyOp8
 70
     0
102
RTVSPropertyOp9
 70
     0
102
RTVSPropertyOp10
 70
     0
102
RTVSPropertyOp11
 70
     0
102
RTVSPropertyOp12
 70
     0
102
RTVSPropertyOp13
 70
     0
102
RTVSPropertyOp14
 70
     2
102
RTVSPropertyOp15
 70
     0
102
RTVSPropertyOp16
 70
     0
102
RTVSPropertyOp17
 70
     0
102
RTVSPropertyOp18
 70
     0
102
RTVSPropertyOp19
 70
     0
102
RTVSPropertyOp20
 70
     0
102
RTVSPropertyOp21
 70
     0
102
RTVSPropertyOp22
 70
     0
102
RTVSPropertyOp23
 70
     0
102
RTVSPropertyOp24
 70
     0
102
RTVSPropertyOp25
 70
     0
102
RTVSPropertyOp26
 70
     0
102
RTVSPropertyOp27
 70
     0
102
RTVSPropertyOp28
 70
     1
102
RTVSPropertyOp29
 70
     1
102
RTVSPropertyOp30
 70
     1
102
RTVSPropertyOp31
 70
     1
102
RTVSPropertyOp32
 70
     1
102
RTVSPropertyOp33
 70
     1
102
RTVSPropertyOp34
 70
     1
102
RTVSPropertyOp35
 70
     1
102
RTVSPropertyOp36
 70
     1
102
RTVSPropertyOp37
 70
     0
102
RTVSPropertyOp38
 70
     0
102
RTVSPropertyOp39
 70
     0
102
RTVSPropertyOp40
 70
     0
102
RTVSPropertyOp41
 70
     0
102
RTVSPropertyOp42
 70
     0
102
RTVSPropertyOp43
 70
     0
102
RTVSPropertyOp44
 70
     0
102
RTVSPropertyOp45
 70
     1
102
RTVSPropertyOp46
 70
     0
102
RTVSPropertyOp47
 70
     0
102
RTVSPropertyOp48
 70
     0
102
RTVSPropertyOp49
 70
     1
102
RTVSPropertyOp50
 70
     0
102
RTVSPropertyOp51
 70
     0
102
RTVSPropertyOp52
 70
     0
102
RTVSPropertyOp53
 70
     0
102
RTVSPropertyOp54
 70
     0
102
RTVSPropertyOp55
 70
     1
102
RTVSPropertyOp56
 70
     0
102
RTVSPropertyOp57
 70
     0
102
RTVSPropertyOp58
 70
     0
102
RTVSPropertyOp59
 70
     0
102
RTVSPropertyOp60
 70
     0
102
RTVSPropertyOp61
 70
     0
102
RTVSPropertyOp62
 70
     0
  0
XRECORD
  5
412
102
{ACAD_REACTORS
330
411
102
}
330
411
100
AcDbXrecord
280
     1
102
RTVSPost2010Prop28
280
     0
102
RTVSPost2010PropOp28
 70
     1
102
RTVSPost2010Prop29
280
     1
102
RTVSPost2010PropOp29
 70
     1
102
RTVSPost2010Prop30
280
     1
102
RTVSPost2010PropOp30
 70
     1
102
RTVSPost2010Prop31
280
     0
102
RTVSPost2010PropOp31
 70
     1
102
RTVSPost2010Prop32
280
     0
102
RTVSPost2010PropOp32
 70
     1
102
RTVSPost2010Prop33
280
     0
102
RTVSPost2010PropOp33
 70
     1
102
RTVSPost2010Prop34
280
     0
102
RTVSPost2010PropOp34
 70
     1
102
RTVSPost2010Prop35
280
     0
102
RTVSPost2010PropOp35
 70
     1
102
RTVSPost2010Prop36
280
     0
102
RTVSPost2010PropOp36
 70
     1
102
RTVSPost2010Prop37
 90
       50
102
RTVSPost2010PropOp37
 70
     1
102
RTVSPost2010Prop38
140
0.0
102
RTVSPost2010PropOp38
 70
     1
102
RTVSPost2010Prop39
140
1.0
102
RTVSPost2010PropOp39
 70
     1
102
RTVSPost2010Prop40
 90
        0
102
RTVSPost2010PropOp40
 70
     1
102
RTVSPost2010Prop41ColorIndex
 90
       18
102
RTVSPost2010Prop41ColorRGB
 90
        0
102
RTVSPost2010PropOp41
 70
     1
102
RTVSPost2010Prop42
 90
       50
102
RTVSPost2010PropOp42
 70
     1
102
RTVSPost2010Prop43
 90
        3
102
RTVSPost2010PropOp43
 70
     1
102
RTVSPost2010Prop44ColorIndex
 90
        5
102
RTVSPost2010Prop44ColorRGB
 90
      255
102
RTVSPost2010PropOp44
 70
     1
102
RTVSPost2010Prop45
280
     0
102
RTVSPost2010PropOp45
 70
     1
102
RTVSPost2010Prop46
 90
       50
102
RTVSPost2010PropOp46
 70
     1
102
RTVSPost2010Prop47
 90
       50
102
RTVSPost2010PropOp47
 70
     1
102
RTVSPost2010Prop48
 90
       50
102
RTVSPost2010PropOp48
 70
     1
102
RTVSPost2010Prop49
280
     0
102
RTVSPost2010PropOp49
 70
     1
102
RTVSPost2010Prop50
 90
       50
102
RTVSPost2010PropOp50
 70
     1
102
RTVSPost2010Prop51ColorIndex
 90
      256
102
RTVSPost2010Prop51ColorRGB
 90
-16777216
102
RTVSPost2010PropOp51
 70
     0
102
RTVSPost2010Prop52
140
1.0
102
RTVSPost2010PropOp52
 70
     0
102
RTVSPost2010Prop53
 90
        2
102
RTVSPost2010PropOp53
 70
     1
102
RTVSPost2010Prop54
  1
strokes_ogs.tif
102
RTVSPost2010PropOp54
 70
     1
102
RTVSPost2010Prop55
280
     0
102
RTVSPost2010PropOp55
 70
     1
102
RTVSPost2010Prop56
140
1.0
102
RTVSPost2010PropOp56
 70
     1
102
RTVSPost2010Prop57
140
1.0
102
RTVSPost2010PropOp57
 70
     1
102
RTVSPropertyOp0
 70
     1
102
RTVSPropertyOp1
 70
     1
102
RTVSPropertyOp2
 70
     1
102
RTVSPropertyOp3
 70
     1
102
RTVSPropertyOp4
 70
     1
102
RTVSPropertyOp5
 70
     1
102
RTVSPropertyOp6
 70
     1
102
RTVSPropertyOp7
 70
     1
102
RTVSPropertyOp8
 70
     1
102
RTVSPropertyOp9
 70
     1
102
RTVSPropertyOp10
 70
     1
102
RTVSPropertyOp11
 70
     1
102
RTVSPropertyOp12
 70
     1
102
RTVSPropertyOp13
 70
     1
102
RTVSPropertyOp14
 70
     1
102
RTVSPropertyOp15
 70
     1
102
RTVSPropertyOp16
 70
     1
102
RTVSPropertyOp17
 70
     1
102
RTVSPropertyOp18
 70
     1
102
RTVSPropertyOp19
 70
     1
102
RTVSPropertyOp20
 70
     1
102
RTVSPropertyOp21
 70
     1
102
RTVSPropertyOp22
 70
     1
102
RTVSPropertyOp23
 70
     1
102
RTVSPropertyOp24
 70
     1
102
RTVSPropertyOp25
 70
     1
102
RTVSPropertyOp26
 70
     1
102
RTVSPropertyOp27
 70
     1
102
RTVSPropertyOp28
 70
     1
102
RTVSPropertyOp29
 70
     1
102
RTVSPropertyOp30
 70
     1
102
RTVSPropertyOp31
 70
     1
102
RTVSPropertyOp32
 70
     1
102
RTVSPropertyOp33
 70
     1
102
RTVSPropertyOp34
 70
     1
102
RTVSPropertyOp35
 70
     1
102
RTVSPropertyOp36
 70
     1
102
RTVSPropertyOp37
 70
     1
102
RTVSPropertyOp38
 70
     1
102
RTVSPropertyOp39
 70
     1
102
RTVSPropertyOp40
 70
     1
102
RTVSPropertyOp41
 70
     1
102
RTVSPropertyOp42
 70
     1
102
RTVSPropertyOp43
 70
     1
102
RTVSPropertyOp44
 70
     1
102
RTVSPropertyOp45
 70
     1
102
RTVSPropertyOp46
 70
     1
102
RTVSPropertyOp47
 70
     1
102
RTVSPropertyOp48
 70
     1
102
RTVSPropertyOp49
 70
     1
102
RTVSPropertyOp50
 70
     1
102
RTVSPropertyOp51
 70
     0
102
RTVSPropertyOp52
 70
     0
102
RTVSPropertyOp53
 70
     1
102
RTVSPropertyOp54
 70
     1
102
RTVSPropertyOp55
 70
     1
102
RTVSPropertyOp56
 70
     1
102
RTVSPropertyOp57
 70
     1
102
RTVSPropertyOp58
 70
     1
102
RTVSPropertyOp59
 70
     1
102
RTVSPropertyOp60
 70
     1
102
RTVSPropertyOp61
 70
     1
102
RTVSPropertyOp62
 70
     1
  0
XRECORD
  5
424
102
{ACAD_REACTORS
330
423
102
}
330
423
100
AcDbXrecord
280
     1
102
RTVSPost2010Prop28
280
     0
102
RTVSPost2010PropOp28
 70
     1
102
RTVSPost2010Prop29
280
     1
102
RTVSPost2010PropOp29
 70
     1
102
RTVSPost2010Prop30
280
     1
102
RTVSPost2010PropOp30
 70
     1
102
RTVSPost2010Prop31
280
     0
102
RTVSPost2010PropOp31
 70
     1
102
RTVSPost2010Prop32
280
     0
102
RTVSPost2010PropOp32
 70
     1
102
RTVSPost2010Prop33
280
     0
102
RTVSPost2010PropOp33
 70
     1
102
RTVSPost2010Prop34
280
     0
102
RTVSPost2010PropOp34
 70
     1
102
RTVSPost2010Prop35
280
     0
102
RTVSPost2010PropOp35
 70
     1
102
RTVSPost2010Prop36
280
     0
102
RTVSPost2010PropOp36
 70
     1
102
RTVSPost2010Prop37
 90
       50
102
RTVSPost2010PropOp37
 70
     0
102
RTVSPost2010Prop38
140
0.0
102
RTVSPost2010PropOp38
 70
     0
102
RTVSPost2010Prop39
140
1.0
102
RTVSPost2010PropOp39
 70
     0
102
RTVSPost2010Prop40
 90
        0
102
RTVSPost2010PropOp40
 70
     0
102
RTVSPost2010Prop41ColorIndex
 90
       18
102
RTVSPost2010Prop41ColorRGB
 90
        0
102
RTVSPost2010PropOp41
 70
     0
102
RTVSPost2010Prop42
 90
       50
102
RTVSPost2010PropOp42
 70
     0
102
RTVSPost2010Prop43
 90
        3
102
RTVSPost2010PropOp43
 70
     0
102
RTVSPost2010Prop44ColorIndex
 90
        5
102
RTVSPost2010Prop44ColorRGB
 90
      255
102
RTVSPost2010PropOp44
 70
     0
102
RTVSPost2010Prop45
280
     0
102
RTVSPost2010PropOp45
 70
     1
102
RTVSPost2010Prop46
 90
       50
102
RTVSPost2010PropOp46
 70
     0
102
RTVSPost2010Prop47
 90
       50
102
RTVSPost2010PropOp47
 70
     0
102
RTVSPost2010Prop48
 90
       50
102
RTVSPost2010PropOp48
 70
     0
102
RTVSPost2010Prop49
280
     0
102
RTVSPost2010PropOp49
 70
     1
102
RTVSPost2010Prop50
 90
       50
102
RTVSPost2010PropOp50
 70
     0
102
RTVSPost2010Prop51ColorIndex
 90
      256
102
RTVSPost2010Prop51ColorRGB
 90
-16777216
102
RTVSPost2010PropOp51
 70
     0
102
RTVSPost2010Prop52
140
1.0
102
RTVSPost2010PropOp52
 70
     0
102
RTVSPost2010Prop53
 90
        2
102
RTVSPost2010PropOp53
 70
     0
102
RTVSPost2010Prop54
  1
strokes_ogs.tif
102
RTVSPost2010PropOp54
 70
     0
102
RTVSPost2010Prop55
280
     0
102
RTVSPost2010PropOp55
 70
     1
102
RTVSPost2010Prop56
140
1.0
102
RTVSPost2010PropOp56
 70
     0
102
RTVSPost2010Prop57
140
1.0
102
RTVSPost2010PropOp57
 70
     0
102
RTVSPropertyOp0
 70
     0
102
RTVSPropertyOp1
 70
     0
102
RTVSPropertyOp2
 70
     0
102
RTVSPropertyOp3
 70
     0
102
RTVSPropertyOp4
 70
     0
102
RTVSPropertyOp5
 70
     0
102
RTVSPropertyOp6
 70
     0
102
RTVSPropertyOp7
 70
     0
102
RTVSPropertyOp8
 70
     0
102
RTVSPropertyOp9
 70
     0
102
RTVSPropertyOp10
 70
     0
102
RTVSPropertyOp11
 70
     0
102
RTVSPropertyOp12
 70
     0
102
RTVSPropertyOp13
 70
     0
102
RTVSPropertyOp14
 70
     2
102
RTVSPropertyOp15
 70
     0
102
RTVSPropertyOp16
 70
     0
102
RTVSPropertyOp17
 70
     0
102
RTVSPropertyOp18
 70
     0
102
RTVSPropertyOp19
 70
     0
102
RTVSPropertyOp20
 70
     0
102
RTVSPropertyOp21
 70
     0
102
RTVSPropertyOp22
 70
     0
102
RTVSPropertyOp23
 70
     0
102
RTVSPropertyOp24
 70
     0
102
RTVSPropertyOp25
 70
     0
102
RTVSPropertyOp26
 70
     0
102
RTVSPropertyOp27
 70
     0
102
RTVSPropertyOp28
 70
     1
102
RTVSPropertyOp29
 70
     1
102
RTVSPropertyOp30
 70
     1
102
RTVSPropertyOp31
 70
     1
102
RTVSPropertyOp32
 70
     1
102
RTVSPropertyOp33
 70
     1
102
RTVSPropertyOp34
 70
     1
102
RTVSPropertyOp35
 70
     1
102
RTVSPropertyOp36
 70
     1
102
RTVSPropertyOp37
 70
     0
102
RTVSPropertyOp38
 70
     0
102
RTVSPropertyOp39
 70
     0
102
RTVSPropertyOp40
 70
     0
102
RTVSPropertyOp41
 70
     0
102
RTVSPropertyOp42
 70
     0
102
RTVSPropertyOp43
 70
     0
102
RTVSPropertyOp44
 70
     0
102
RTVSPropertyOp45
 70
     1
102
RTVSPropertyOp46
 70
     0
102
RTVSPropertyOp47
 70
     0
102
RTVSPropertyOp48
 70
     0
102
RTVSPropertyOp49
 70
     1
102
RTVSPropertyOp50
 70
     0
102
RTVSPropertyOp51
 70
     0
102
RTVSPropertyOp52
 70
     0
102
RTVSPropertyOp53
 70
     0
102
RTVSPropertyOp54
 70
     0
102
RTVSPropertyOp55
 70
     1
102
RTVSPropertyOp56
 70
     0
102
RTVSPropertyOp57
 70
     0
102
RTVSPropertyOp58
 70
     0
102
RTVSPropertyOp59
 70
     0
102
RTVSPropertyOp60
 70
     0
102
RTVSPropertyOp61
 70
     0
102
RTVSPropertyOp62
 70
     0
  0
XRECORD
  5
40A
102
{ACAD_REACTORS
330
409
102
}
330
409
100
AcDbXrecord
280
     1
102
RTVSPost2010Prop28
280
     0
102
RTVSPost2010PropOp28
 70
     1
102
RTVSPost2010Prop29
280
     1
102
RTVSPost2010PropOp29
 70
     1
102
RTVSPost2010Prop30
280
     1
102
RTVSPost2010PropOp30
 70
     1
102
RTVSPost2010Prop31
280
     0
102
RTVSPost2010PropOp31
 70
     1
102
RTVSPost2010Prop32
280
     0
102
RTVSPost2010PropOp32
 70
     1
102
RTVSPost2010Prop33
280
     0
102
RTVSPost2010PropOp33
 70
     1
102
RTVSPost2010Prop34
280
     0
102
RTVSPost2010PropOp34
 70
     1
102
RTVSPost2010Prop35
280
     0
102
RTVSPost2010PropOp35
 70
     1
102
RTVSPost2010Prop36
280
     0
102
RTVSPost2010PropOp36
 70
     1
102
RTVSPost2010Prop37
 90
       50
102
RTVSPost2010PropOp37
 70
     1
102
RTVSPost2010Prop38
140
0.0
102
RTVSPost2010PropOp38
 70
     1
102
RTVSPost2010Prop39
140
1.0
102
RTVSPost2010PropOp39
 70
     1
102
RTVSPost2010Prop40
 90
        0
102
RTVSPost2010PropOp40
 70
     1
102
RTVSPost2010Prop41ColorIndex
 90
       18
102
RTVSPost2010Prop41ColorRGB
 90
        0
102
RTVSPost2010PropOp41
 70
     1
102
RTVSPost2010Prop42
 90
       50
102
RTVSPost2010PropOp42
 70
     1
102
RTVSPost2010Prop43
 90
        3
102
RTVSPost2010PropOp43
 70
     1
102
RTVSPost2010Prop44ColorIndex
 90
        5
102
RTVSPost2010Prop44ColorRGB
 90
      255
102
RTVSPost2010PropOp44
 70
     1
102
RTVSPost2010Prop45
280
     0
102
RTVSPost2010PropOp45
 70
     1
102
RTVSPost2010Prop46
 90
       50
102
RTVSPost2010PropOp46
 70
     1
102
RTVSPost2010Prop47
 90
       50
102
RTVSPost2010PropOp47
 70
     1
102
RTVSPost2010Prop48
 90
       50
102
RTVSPost2010PropOp48
 70
     1
102
RTVSPost2010Prop49
280
     0
102
RTVSPost2010PropOp49
 70
     1
102
RTVSPost2010Prop50
 90
       50
102
RTVSPost2010PropOp50
 70
     1
102
RTVSPost2010Prop51ColorIndex
 90
      256
102
RTVSPost2010Prop51ColorRGB
 90
-16777216
102
RTVSPost2010PropOp51
 70
     0
102
RTVSPost2010Prop52
140
1.0
102
RTVSPost2010PropOp52
 70
     0
102
RTVSPost2010Prop53
 90
        2
102
RTVSPost2010PropOp53
 70
     1
102
RTVSPost2010Prop54
  1
strokes_ogs.tif
102
RTVSPost2010PropOp54
 70
     1
102
RTVSPost2010Prop55
280
     0
102
RTVSPost2010PropOp55
 70
     1
102
RTVSPost2010Prop56
140
1.0
102
RTVSPost2010PropOp56
 70
     1
102
RTVSPost2010Prop57
140
1.0
102
RTVSPost2010PropOp57
 70
     1
102
RTVSPropertyOp0
 70
     1
102
RTVSPropertyOp1
 70
     1
102
RTVSPropertyOp2
 70
     1
102
RTVSPropertyOp3
 70
     1
102
RTVSPropertyOp4
 70
     1
102
RTVSPropertyOp5
 70
     1
102
RTVSPropertyOp6
 70
     1
102
RTVSPropertyOp7
 70
     1
102
RTVSPropertyOp8
 70
     1
102
RTVSPropertyOp9
 70
     1
102
RTVSPropertyOp10
 70
     1
102
RTVSPropertyOp11
 70
     1
102
RTVSPropertyOp12
 70
     1
102
RTVSPropertyOp13
 70
     1
102
RTVSPropertyOp14
 70
     1
102
RTVSPropertyOp15
 70
     1
102
RTVSPropertyOp16
 70
     1
102
RTVSPropertyOp17
 70
     1
102
RTVSPropertyOp18
 70
     1
102
RTVSPropertyOp19
 70
     1
102
RTVSPropertyOp20
 70
     1
102
RTVSPropertyOp21
 70
     1
102
RTVSPropertyOp22
 70
     1
102
RTVSPropertyOp23
 70
     1
102
RTVSPropertyOp24
 70
     1
102
RTVSPropertyOp25
 70
     1
102
RTVSPropertyOp26
 70
     1
102
RTVSPropertyOp27
 70
     1
102
RTVSPropertyOp28
 70
     1
102
RTVSPropertyOp29
 70
     1
102
RTVSPropertyOp30
 70
     1
102
RTVSPropertyOp31
 70
     1
102
RTVSPropertyOp32
 70
     1
102
RTVSPropertyOp33
 70
     1
102
RTVSPropertyOp34
 70
     1
102
RTVSPropertyOp35
 70
     1
102
RTVSPropertyOp36
 70
     1
102
RTVSPropertyOp37
 70
     1
102
RTVSPropertyOp38
 70
     1
102
RTVSPropertyOp39
 70
     1
102
RTVSPropertyOp40
 70
     1
102
RTVSPropertyOp41
 70
     1
102
RTVSPropertyOp42
 70
     1
102
RTVSPropertyOp43
 70
     1
102
RTVSPropertyOp44
 70
     1
102
RTVSPropertyOp45
 70
     1
102
RTVSPropertyOp46
 70
     1
102
RTVSPropertyOp47
 70
     1
102
RTVSPropertyOp48
 70
     1
102
RTVSPropertyOp49
 70
     1
102
RTVSPropertyOp50
 70
     1
102
RTVSPropertyOp51
 70
     0
102
RTVSPropertyOp52
 70
     0
102
RTVSPropertyOp53
 70
     1
102
RTVSPropertyOp54
 70
     1
102
RTVSPropertyOp55
 70
     1
102
RTVSPropertyOp56
 70
     1
102
RTVSPropertyOp57
 70
     1
102
RTVSPropertyOp58
 70
     1
102
RTVSPropertyOp59
 70
     1
102
RTVSPropertyOp60
 70
     1
102
RTVSPropertyOp61
 70
     1
102
RTVSPropertyOp62
 70
     1
  0
XRECORD
  5
420
102
{ACAD_REACTORS
330
41F
102
}
330
41F
100
AcDbXrecord
280
     1
102
RTVSPost2010Prop28
280
     0
102
RTVSPost2010PropOp28
 70
     1
102
RTVSPost2010Prop29
280
     1
102
RTVSPost2010PropOp29
 70
     1
102
RTVSPost2010Prop30
280
     1
102
RTVSPost2010PropOp30
 70
     1
102
RTVSPost2010Prop31
280
     0
102
RTVSPost2010PropOp31
 70
     1
102
RTVSPost2010Prop32
280
     0
102
RTVSPost2010PropOp32
 70
     1
102
RTVSPost2010Prop33
280
     0
102
RTVSPost2010PropOp33
 70
     1
102
RTVSPost2010Prop34
280
     0
102
RTVSPost2010PropOp34
 70
     1
102
RTVSPost2010Prop35
280
     0
102
RTVSPost2010PropOp35
 70
     1
102
RTVSPost2010Prop36
280
     0
102
RTVSPost2010PropOp36
 70
     1
102
RTVSPost2010Prop37
 90
       50
102
RTVSPost2010PropOp37
 70
     1
102
RTVSPost2010Prop38
140
0.0
102
RTVSPost2010PropOp38
 70
     1
102
RTVSPost2010Prop39
140
1.0
102
RTVSPost2010PropOp39
 70
     1
102
RTVSPost2010Prop40
 90
        0
102
RTVSPost2010PropOp40
 70
     1
102
RTVSPost2010Prop41ColorIndex
 90
       18
102
RTVSPost2010Prop41ColorRGB
 90
        0
102
RTVSPost2010PropOp41
 70
     1
102
RTVSPost2010Prop42
 90
       50
102
RTVSPost2010PropOp42
 70
     1
102
RTVSPost2010Prop43
 90
        3
102
RTVSPost2010PropOp43
 70
     1
102
RTVSPost2010Prop44ColorIndex
 90
        5
102
RTVSPost2010Prop44ColorRGB
 90
      255
102
RTVSPost2010PropOp44
 70
     1
102
RTVSPost2010Prop45
280
     0
102
RTVSPost2010PropOp45
 70
     1
102
RTVSPost2010Prop46
 90
       50
102
RTVSPost2010PropOp46
 70
     1
102
RTVSPost2010Prop47
 90
       50
102
RTVSPost2010PropOp47
 70
     1
102
RTVSPost2010Prop48
 90
       50
102
RTVSPost2010PropOp48
 70
     1
102
RTVSPost2010Prop49
280
     0
102
RTVSPost2010PropOp49
 70
     1
102
RTVSPost2010Prop50
 90
       50
102
RTVSPost2010PropOp50
 70
     1
102
RTVSPost2010Prop51ColorIndex
 90
      256
102
RTVSPost2010Prop51ColorRGB
 90
-16777216
102
RTVSPost2010PropOp51
 70
     0
102
RTVSPost2010Prop52
140
1.0
102
RTVSPost2010PropOp52
 70
     0
102
RTVSPost2010Prop53
 90
        2
102
RTVSPost2010PropOp53
 70
     1
102
RTVSPost2010Prop54
  1
strokes_ogs.tif
102
RTVSPost2010PropOp54
 70
     1
102
RTVSPost2010Prop55
280
     0
102
RTVSPost2010PropOp55
 70
     1
102
RTVSPost2010Prop56
140
1.0
102
RTVSPost2010PropOp56
 70
     1
102
RTVSPost2010Prop57
140
1.0
102
RTVSPost2010PropOp57
 70
     1
102
RTVSPropertyOp0
 70
     1
102
RTVSPropertyOp1
 70
     1
102
RTVSPropertyOp2
 70
     1
102
RTVSPropertyOp3
 70
     1
102
RTVSPropertyOp4
 70
     1
102
RTVSPropertyOp5
 70
     1
102
RTVSPropertyOp6
 70
     1
102
RTVSPropertyOp7
 70
     1
102
RTVSPropertyOp8
 70
     1
102
RTVSPropertyOp9
 70
     1
102
RTVSPropertyOp10
 70
     1
102
RTVSPropertyOp11
 70
     1
102
RTVSPropertyOp12
 70
     1
102
RTVSPropertyOp13
 70
     1
102
RTVSPropertyOp14
 70
     1
102
RTVSPropertyOp15
 70
     1
102
RTVSPropertyOp16
 70
     1
102
RTVSPropertyOp17
 70
     1
102
RTVSPropertyOp18
 70
     1
102
RTVSPropertyOp19
 70
     1
102
RTVSPropertyOp20
 70
     1
102
RTVSPropertyOp21
 70
     1
102
RTVSPropertyOp22
 70
     1
102
RTVSPropertyOp23
 70
     1
102
RTVSPropertyOp24
 70
     1
102
RTVSPropertyOp25
 70
     1
102
RTVSPropertyOp26
 70
     1
102
RTVSPropertyOp27
 70
     1
102
RTVSPropertyOp28
 70
     1
102
RTVSPropertyOp29
 70
     1
102
RTVSPropertyOp30
 70
     1
102
RTVSPropertyOp31
 70
     1
102
RTVSPropertyOp32
 70
     1
102
RTVSPropertyOp33
 70
     1
102
RTVSPropertyOp34
 70
     1
102
RTVSPropertyOp35
 70
     1
102
RTVSPropertyOp36
 70
     1
102
RTVSPropertyOp37
 70
     1
102
RTVSPropertyOp38
 70
     1
102
RTVSPropertyOp39
 70
     1
102
RTVSPropertyOp40
 70
     1
102
RTVSPropertyOp41
 70
     1
102
RTVSPropertyOp42
 70
     1
102
RTVSPropertyOp43
 70
     1
102
RTVSPropertyOp44
 70
     1
102
RTVSPropertyOp45
 70
     1
102
RTVSPropertyOp46
 70
     1
102
RTVSPropertyOp47
 70
     1
102
RTVSPropertyOp48
 70
     1
102
RTVSPropertyOp49
 70
     1
102
RTVSPropertyOp50
 70
     1
102
RTVSPropertyOp51
 70
     0
102
RTVSPropertyOp52
 70
     0
102
RTVSPropertyOp53
 70
     1
102
RTVSPropertyOp54
 70
     1
102
RTVSPropertyOp55
 70
     1
102
RTVSPropertyOp56
 70
     1
102
RTVSPropertyOp57
 70
     1
102
RTVSPropertyOp58
 70
     1
102
RTVSPropertyOp59
 70
     1
102
RTVSPropertyOp60
 70
     1
102
RTVSPropertyOp61
 70
     1
102
RTVSPropertyOp62
 70
     1
  0
XRECORD
  5
41E
102
{ACAD_REACTORS
330
41D
102
}
330
41D
100
AcDbXrecord
280
     1
102
RTVSPost2010Prop28
280
     0
102
RTVSPost2010PropOp28
 70
     1
102
RTVSPost2010Prop29
280
     1
102
RTVSPost2010PropOp29
 70
     1
102
RTVSPost2010Prop30
280
     1
102
RTVSPost2010PropOp30
 70
     1
102
RTVSPost2010Prop31
280
     0
102
RTVSPost2010PropOp31
 70
     1
102
RTVSPost2010Prop32
280
     0
102
RTVSPost2010PropOp32
 70
     1
102
RTVSPost2010Prop33
280
     0
102
RTVSPost2010PropOp33
 70
     1
102
RTVSPost2010Prop34
280
     0
102
RTVSPost2010PropOp34
 70
     1
102
RTVSPost2010Prop35
280
     0
102
RTVSPost2010PropOp35
 70
     1
102
RTVSPost2010Prop36
280
     0
102
RTVSPost2010PropOp36
 70
     1
102
RTVSPost2010Prop37
 90
       50
102
RTVSPost2010PropOp37
 70
     1
102
RTVSPost2010Prop38
140
0.0
102
RTVSPost2010PropOp38
 70
     1
102
RTVSPost2010Prop39
140
1.0
102
RTVSPost2010PropOp39
 70
     1
102
RTVSPost2010Prop40
 90
        0
102
RTVSPost2010PropOp40
 70
     1
102
RTVSPost2010Prop41ColorIndex
 90
       18
102
RTVSPost2010Prop41ColorRGB
 90
        0
102
RTVSPost2010PropOp41
 70
     1
102
RTVSPost2010Prop42
 90
       50
102
RTVSPost2010PropOp42
 70
     1
102
RTVSPost2010Prop43
 90
        3
102
RTVSPost2010PropOp43
 70
     1
102
RTVSPost2010Prop44ColorIndex
 90
        5
102
RTVSPost2010Prop44ColorRGB
 90
      255
102
RTVSPost2010PropOp44
 70
     1
102
RTVSPost2010Prop45
280
     0
102
RTVSPost2010PropOp45
 70
     1
102
RTVSPost2010Prop46
 90
       50
102
RTVSPost2010PropOp46
 70
     1
102
RTVSPost2010Prop47
 90
       50
102
RTVSPost2010PropOp47
 70
     1
102
RTVSPost2010Prop48
 90
       50
102
RTVSPost2010PropOp48
 70
     1
102
RTVSPost2010Prop49
280
     0
102
RTVSPost2010PropOp49
 70
     1
102
RTVSPost2010Prop50
 90
       50
102
RTVSPost2010PropOp50
 70
     1
102
RTVSPost2010Prop51ColorIndex
 90
      256
102
RTVSPost2010Prop51ColorRGB
 90
-16777216
102
RTVSPost2010PropOp51
 70
     0
102
RTVSPost2010Prop52
140
1.0
102
RTVSPost2010PropOp52
 70
     0
102
RTVSPost2010Prop53
 90
        2
102
RTVSPost2010PropOp53
 70
     1
102
RTVSPost2010Prop54
  1
strokes_ogs.tif
102
RTVSPost2010PropOp54
 70
     1
102
RTVSPost2010Prop55
280
     0
102
RTVSPost2010PropOp55
 70
     1
102
RTVSPost2010Prop56
140
1.0
102
RTVSPost2010PropOp56
 70
     1
102
RTVSPost2010Prop57
140
1.0
102
RTVSPost2010PropOp57
 70
     1
102
RTVSPropertyOp0
 70
     1
102
RTVSPropertyOp1
 70
     1
102
RTVSPropertyOp2
 70
     1
102
RTVSPropertyOp3
 70
     1
102
RTVSPropertyOp4
 70
     1
102
RTVSPropertyOp5
 70
     1
102
RTVSPropertyOp6
 70
     1
102
RTVSPropertyOp7
 70
     1
102
RTVSPropertyOp8
 70
     1
102
RTVSPropertyOp9
 70
     1
102
RTVSPropertyOp10
 70
     1
102
RTVSPropertyOp11
 70
     1
102
RTVSPropertyOp12
 70
     1
102
RTVSPropertyOp13
 70
     1
102
RTVSPropertyOp14
 70
     1
102
RTVSPropertyOp15
 70
     1
102
RTVSPropertyOp16
 70
     1
102
RTVSPropertyOp17
 70
     1
102
RTVSPropertyOp18
 70
     1
102
RTVSPropertyOp19
 70
     1
102
RTVSPropertyOp20
 70
     1
102
RTVSPropertyOp21
 70
     1
102
RTVSPropertyOp22
 70
     1
102
RTVSPropertyOp23
 70
     1
102
RTVSPropertyOp24
 70
     1
102
RTVSPropertyOp25
 70
     1
102
RTVSPropertyOp26
 70
     1
102
RTVSPropertyOp27
 70
     1
102
RTVSPropertyOp28
 70
     1
102
RTVSPropertyOp29
 70
     1
102
RTVSPropertyOp30
 70
     1
102
RTVSPropertyOp31
 70
     1
102
RTVSPropertyOp32
 70
     1
102
RTVSPropertyOp33
 70
     1
102
RTVSPropertyOp34
 70
     1
102
RTVSPropertyOp35
 70
     1
102
RTVSPropertyOp36
 70
     1
102
RTVSPropertyOp37
 70
     1
102
RTVSPropertyOp38
 70
     1
102
RTVSPropertyOp39
 70
     1
102
RTVSPropertyOp40
 70
     1
102
RTVSPropertyOp41
 70
     1
102
RTVSPropertyOp42
 70
     1
102
RTVSPropertyOp43
 70
     1
102
RTVSPropertyOp44
 70
     1
102
RTVSPropertyOp45
 70
     1
102
RTVSPropertyOp46
 70
     1
102
RTVSPropertyOp47
 70
     1
102
RTVSPropertyOp48
 70
     1
102
RTVSPropertyOp49
 70
     1
102
RTVSPropertyOp50
 70
     1
102
RTVSPropertyOp51
 70
     0
102
RTVSPropertyOp52
 70
     0
102
RTVSPropertyOp53
 70
     1
102
RTVSPropertyOp54
 70
     1
102
RTVSPropertyOp55
 70
     1
102
RTVSPropertyOp56
 70
     1
102
RTVSPropertyOp57
 70
     1
102
RTVSPropertyOp58
 70
     1
102
RTVSPropertyOp59
 70
     1
102
RTVSPropertyOp60
 70
     1
102
RTVSPropertyOp61
 70
     1
102
RTVSPropertyOp62
 70
     1
  0
XRECORD
  5
418
102
{ACAD_REACTORS
330
417
102
}
330
417
100
AcDbXrecord
280
     1
102
RTVSPost2010Prop28
280
     0
102
RTVSPost2010PropOp28
 70
     1
102
RTVSPost2010Prop29
280
     1
102
RTVSPost2010PropOp29
 70
     1
102
RTVSPost2010Prop30
280
     1
102
RTVSPost2010PropOp30
 70
     1
102
RTVSPost2010Prop31
280
     0
102
RTVSPost2010PropOp31
 70
     1
102
RTVSPost2010Prop32
280
     0
102
RTVSPost2010PropOp32
 70
     1
102
RTVSPost2010Prop33
280
     0
102
RTVSPost2010PropOp33
 70
     1
102
RTVSPost2010Prop34
280
     0
102
RTVSPost2010PropOp34
 70
     1
102
RTVSPost2010Prop35
280
     0
102
RTVSPost2010PropOp35
 70
     1
102
RTVSPost2010Prop36
280
     0
102
RTVSPost2010PropOp36
 70
     1
102
RTVSPost2010Prop37
 90
       50
102
RTVSPost2010PropOp37
 70
     1
102
RTVSPost2010Prop38
140
0.0
102
RTVSPost2010PropOp38
 70
     1
102
RTVSPost2010Prop39
140
1.0
102
RTVSPost2010PropOp39
 70
     1
102
RTVSPost2010Prop40
 90
        0
102
RTVSPost2010PropOp40
 70
     1
102
RTVSPost2010Prop41ColorIndex
 90
       18
102
RTVSPost2010Prop41ColorRGB
 90
        0
102
RTVSPost2010PropOp41
 70
     1
102
RTVSPost2010Prop42
 90
       50
102
RTVSPost2010PropOp42
 70
     1
102
RTVSPost2010Prop43
 90
        3
102
RTVSPost2010PropOp43
 70
     1
102
RTVSPost2010Prop44ColorIndex
 90
        5
102
RTVSPost2010Prop44ColorRGB
 90
      255
102
RTVSPost2010PropOp44
 70
     1
102
RTVSPost2010Prop45
280
     0
102
RTVSPost2010PropOp45
 70
     1
102
RTVSPost2010Prop46
 90
       50
102
RTVSPost2010PropOp46
 70
     1
102
RTVSPost2010Prop47
 90
       50
102
RTVSPost2010PropOp47
 70
     1
102
RTVSPost2010Prop48
 90
       50
102
RTVSPost2010PropOp48
 70
     1
102
RTVSPost2010Prop49
280
     0
102
RTVSPost2010PropOp49
 70
     1
102
RTVSPost2010Prop50
 90
       50
102
RTVSPost2010PropOp50
 70
     1
102
RTVSPost2010Prop51ColorIndex
 90
      256
102
RTVSPost2010Prop51ColorRGB
 90
-16777216
102
RTVSPost2010PropOp51
 70
     0
102
RTVSPost2010Prop52
140
1.0
102
RTVSPost2010PropOp52
 70
     0
102
RTVSPost2010Prop53
 90
        2
102
RTVSPost2010PropOp53
 70
     1
102
RTVSPost2010Prop54
  1
strokes_ogs.tif
102
RTVSPost2010PropOp54
 70
     1
102
RTVSPost2010Prop55
280
     0
102
RTVSPost2010PropOp55
 70
     1
102
RTVSPost2010Prop56
140
1.0
102
RTVSPost2010PropOp56
 70
     1
102
RTVSPost2010Prop57
140
1.0
102
RTVSPost2010PropOp57
 70
     1
102
RTVSPropertyOp0
 70
     1
102
RTVSPropertyOp1
 70
     1
102
RTVSPropertyOp2
 70
     1
102
RTVSPropertyOp3
 70
     1
102
RTVSPropertyOp4
 70
     1
102
RTVSPropertyOp5
 70
     1
102
RTVSPropertyOp6
 70
     1
102
RTVSPropertyOp7
 70
     1
102
RTVSPropertyOp8
 70
     1
102
RTVSPropertyOp9
 70
     1
102
RTVSPropertyOp10
 70
     1
102
RTVSPropertyOp11
 70
     1
102
RTVSPropertyOp12
 70
     1
102
RTVSPropertyOp13
 70
     1
102
RTVSPropertyOp14
 70
     1
102
RTVSPropertyOp15
 70
     1
102
RTVSPropertyOp16
 70
     1
102
RTVSPropertyOp17
 70
     1
102
RTVSPropertyOp18
 70
     1
102
RTVSPropertyOp19
 70
     1
102
RTVSPropertyOp20
 70
     1
102
RTVSPropertyOp21
 70
     1
102
RTVSPropertyOp22
 70
     1
102
RTVSPropertyOp23
 70
     1
102
RTVSPropertyOp24
 70
     1
102
RTVSPropertyOp25
 70
     1
102
RTVSPropertyOp26
 70
     1
102
RTVSPropertyOp27
 70
     1
102
RTVSPropertyOp28
 70
     1
102
RTVSPropertyOp29
 70
     1
102
RTVSPropertyOp30
 70
     1
102
RTVSPropertyOp31
 70
     1
102
RTVSPropertyOp32
 70
     1
102
RTVSPropertyOp33
 70
     1
102
RTVSPropertyOp34
 70
     1
102
RTVSPropertyOp35
 70
     1
102
RTVSPropertyOp36
 70
     1
102
RTVSPropertyOp37
 70
     1
102
RTVSPropertyOp38
 70
     1
102
RTVSPropertyOp39
 70
     1
102
RTVSPropertyOp40
 70
     1
102
RTVSPropertyOp41
 70
     1
102
RTVSPropertyOp42
 70
     1
102
RTVSPropertyOp43
 70
     1
102
RTVSPropertyOp44
 70
     1
102
RTVSPropertyOp45
 70
     1
102
RTVSPropertyOp46
 70
     1
102
RTVSPropertyOp47
 70
     1
102
RTVSPropertyOp48
 70
     1
102
RTVSPropertyOp49
 70
     1
102
RTVSPropertyOp50
 70
     1
102
RTVSPropertyOp51
 70
     0
102
RTVSPropertyOp52
 70
     0
102
RTVSPropertyOp53
 70
     1
102
RTVSPropertyOp54
 70
     1
102
RTVSPropertyOp55
 70
     1
102
RTVSPropertyOp56
 70
     1
102
RTVSPropertyOp57
 70
     1
102
RTVSPropertyOp58
 70
     1
102
RTVSPropertyOp59
 70
     1
102
RTVSPropertyOp60
 70
     1
102
RTVSPropertyOp61
 70
     1
102
RTVSPropertyOp62
 70
     1
  0
XRECORD
  5
41A
102
{ACAD_REACTORS
330
419
102
}
330
419
100
AcDbXrecord
280
     1
102
RTVSPost2010Prop28
280
     0
102
RTVSPost2010PropOp28
 70
     1
102
RTVSPost2010Prop29
280
     1
102
RTVSPost2010PropOp29
 70
     1
102
RTVSPost2010Prop30
280
     1
102
RTVSPost2010PropOp30
 70
     1
102
RTVSPost2010Prop31
280
     0
102
RTVSPost2010PropOp31
 70
     1
102
RTVSPost2010Prop32
280
     0
102
RTVSPost2010PropOp32
 70
     1
102
RTVSPost2010Prop33
280
     0
102
RTVSPost2010PropOp33
 70
     1
102
RTVSPost2010Prop34
280
     0
102
RTVSPost2010PropOp34
 70
     1
102
RTVSPost2010Prop35
280
     0
102
RTVSPost2010PropOp35
 70
     1
102
RTVSPost2010Prop36
280
     0
102
RTVSPost2010PropOp36
 70
     1
102
RTVSPost2010Prop37
 90
       50
102
RTVSPost2010PropOp37
 70
     1
102
RTVSPost2010Prop38
140
0.0
102
RTVSPost2010PropOp38
 70
     1
102
RTVSPost2010Prop39
140
1.0
102
RTVSPost2010PropOp39
 70
     1
102
RTVSPost2010Prop40
 90
        0
102
RTVSPost2010PropOp40
 70
     1
102
RTVSPost2010Prop41ColorIndex
 90
       18
102
RTVSPost2010Prop41ColorRGB
 90
        0
102
RTVSPost2010PropOp41
 70
     1
102
RTVSPost2010Prop42
 90
       50
102
RTVSPost2010PropOp42
 70
     1
102
RTVSPost2010Prop43
 90
        3
102
RTVSPost2010PropOp43
 70
     1
102
RTVSPost2010Prop44ColorIndex
 90
        5
102
RTVSPost2010Prop44ColorRGB
 90
      255
102
RTVSPost2010PropOp44
 70
     1
102
RTVSPost2010Prop45
280
     0
102
RTVSPost2010PropOp45
 70
     1
102
RTVSPost2010Prop46
 90
       50
102
RTVSPost2010PropOp46
 70
     1
102
RTVSPost2010Prop47
 90
       50
102
RTVSPost2010PropOp47
 70
     1
102
RTVSPost2010Prop48
 90
       50
102
RTVSPost2010PropOp48
 70
     1
102
RTVSPost2010Prop49
280
     0
102
RTVSPost2010PropOp49
 70
     1
102
RTVSPost2010Prop50
 90
       50
102
RTVSPost2010PropOp50
 70
     1
102
RTVSPost2010Prop51ColorIndex
 90
      256
102
RTVSPost2010Prop51ColorRGB
 90
-16777216
102
RTVSPost2010PropOp51
 70
     0
102
RTVSPost2010Prop52
140
1.0
102
RTVSPost2010PropOp52
 70
     0
102
RTVSPost2010Prop53
 90
        2
102
RTVSPost2010PropOp53
 70
     1
102
RTVSPost2010Prop54
  1
strokes_ogs.tif
102
RTVSPost2010PropOp54
 70
     1
102
RTVSPost2010Prop55
280
     0
102
RTVSPost2010PropOp55
 70
     1
102
RTVSPost2010Prop56
140
1.0
102
RTVSPost2010PropOp56
 70
     1
102
RTVSPost2010Prop57
140
1.0
102
RTVSPost2010PropOp57
 70
     1
102
RTVSPropertyOp0
 70
     1
102
RTVSPropertyOp1
 70
     1
102
RTVSPropertyOp2
 70
     1
102
RTVSPropertyOp3
 70
     1
102
RTVSPropertyOp4
 70
     1
102
RTVSPropertyOp5
 70
     1
102
RTVSPropertyOp6
 70
     1
102
RTVSPropertyOp7
 70
     1
102
RTVSPropertyOp8
 70
     1
102
RTVSPropertyOp9
 70
     1
102
RTVSPropertyOp10
 70
     1
102
RTVSPropertyOp11
 70
     1
102
RTVSPropertyOp12
 70
     1
102
RTVSPropertyOp13
 70
     1
102
RTVSPropertyOp14
 70
     1
102
RTVSPropertyOp15
 70
     1
102
RTVSPropertyOp16
 70
     1
102
RTVSPropertyOp17
 70
     1
102
RTVSPropertyOp18
 70
     1
102
RTVSPropertyOp19
 70
     1
102
RTVSPropertyOp20
 70
     1
102
RTVSPropertyOp21
 70
     1
102
RTVSPropertyOp22
 70
     1
102
RTVSPropertyOp23
 70
     1
102
RTVSPropertyOp24
 70
     1
102
RTVSPropertyOp25
 70
     1
102
RTVSPropertyOp26
 70
     1
102
RTVSPropertyOp27
 70
     1
102
RTVSPropertyOp28
 70
     1
102
RTVSPropertyOp29
 70
     1
102
RTVSPropertyOp30
 70
     1
102
RTVSPropertyOp31
 70
     1
102
RTVSPropertyOp32
 70
     1
102
RTVSPropertyOp33
 70
     1
102
RTVSPropertyOp34
 70
     1
102
RTVSPropertyOp35
 70
     1
102
RTVSPropertyOp36
 70
     1
102
RTVSPropertyOp37
 70
     1
102
RTVSPropertyOp38
 70
     1
102
RTVSPropertyOp39
 70
     1
102
RTVSPropertyOp40
 70
     1
102
RTVSPropertyOp41
 70
     1
102
RTVSPropertyOp42
 70
     1
102
RTVSPropertyOp43
 70
     1
102
RTVSPropertyOp44
 70
     1
102
RTVSPropertyOp45
 70
     1
102
RTVSPropertyOp46
 70
     1
102
RTVSPropertyOp47
 70
     1
102
RTVSPropertyOp48
 70
     1
102
RTVSPropertyOp49
 70
     1
102
RTVSPropertyOp50
 70
     1
102
RTVSPropertyOp51
 70
     0
102
RTVSPropertyOp52
 70
     0
102
RTVSPropertyOp53
 70
     1
102
RTVSPropertyOp54
 70
     1
102
RTVSPropertyOp55
 70
     1
102
RTVSPropertyOp56
 70
     1
102
RTVSPropertyOp57
 70
     1
102
RTVSPropertyOp58
 70
     1
102
RTVSPropertyOp59
 70
     1
102
RTVSPropertyOp60
 70
     1
102
RTVSPropertyOp61
 70
     1
102
RTVSPropertyOp62
 70
     1
  0
XRECORD
  5
410
102
{ACAD_REACTORS
330
40F
102
}
330
40F
100
AcDbXrecord
280
     1
102
RTVSPost2010Prop28
280
     0
102
RTVSPost2010PropOp28
 70
     1
102
RTVSPost2010Prop29
280
     1
102
RTVSPost2010PropOp29
 70
     1
102
RTVSPost2010Prop30
280
     1
102
RTVSPost2010PropOp30
 70
     1
102
RTVSPost2010Prop31
280
     0
102
RTVSPost2010PropOp31
 70
     1
102
RTVSPost2010Prop32
280
     0
102
RTVSPost2010PropOp32
 70
     1
102
RTVSPost2010Prop33
280
     0
102
RTVSPost2010PropOp33
 70
     1
102
RTVSPost2010Prop34
280
     0
102
RTVSPost2010PropOp34
 70
     1
102
RTVSPost2010Prop35
280
     0
102
RTVSPost2010PropOp35
 70
     1
102
RTVSPost2010Prop36
280
     0
102
RTVSPost2010PropOp36
 70
     1
102
RTVSPost2010Prop37
 90
       50
102
RTVSPost2010PropOp37
 70
     1
102
RTVSPost2010Prop38
140
0.0
102
RTVSPost2010PropOp38
 70
     1
102
RTVSPost2010Prop39
140
1.0
102
RTVSPost2010PropOp39
 70
     1
102
RTVSPost2010Prop40
 90
        0
102
RTVSPost2010PropOp40
 70
     1
102
RTVSPost2010Prop41ColorIndex
 90
       18
102
RTVSPost2010Prop41ColorRGB
 90
        0
102
RTVSPost2010PropOp41
 70
     1
102
RTVSPost2010Prop42
 90
       50
102
RTVSPost2010PropOp42
 70
     1
102
RTVSPost2010Prop43
 90
        3
102
RTVSPost2010PropOp43
 70
     1
102
RTVSPost2010Prop44ColorIndex
 90
        5
102
RTVSPost2010Prop44ColorRGB
 90
      255
102
RTVSPost2010PropOp44
 70
     1
102
RTVSPost2010Prop45
280
     0
102
RTVSPost2010PropOp45
 70
     1
102
RTVSPost2010Prop46
 90
       50
102
RTVSPost2010PropOp46
 70
     1
102
RTVSPost2010Prop47
 90
       50
102
RTVSPost2010PropOp47
 70
     1
102
RTVSPost2010Prop48
 90
       50
102
RTVSPost2010PropOp48
 70
     1
102
RTVSPost2010Prop49
280
     0
102
RTVSPost2010PropOp49
 70
     1
102
RTVSPost2010Prop50
 90
       50
102
RTVSPost2010PropOp50
 70
     1
102
RTVSPost2010Prop51ColorIndex
 90
      256
102
RTVSPost2010Prop51ColorRGB
 90
-16777216
102
RTVSPost2010PropOp51
 70
     0
102
RTVSPost2010Prop52
140
1.0
102
RTVSPost2010PropOp52
 70
     0
102
RTVSPost2010Prop53
 90
        2
102
RTVSPost2010PropOp53
 70
     1
102
RTVSPost2010Prop54
  1
strokes_ogs.tif
102
RTVSPost2010PropOp54
 70
     1
102
RTVSPost2010Prop55
280
     0
102
RTVSPost2010PropOp55
 70
     1
102
RTVSPost2010Prop56
140
1.0
102
RTVSPost2010PropOp56
 70
     1
102
RTVSPost2010Prop57
140
1.0
102
RTVSPost2010PropOp57
 70
     1
102
RTVSPropertyOp0
 70
     1
102
RTVSPropertyOp1
 70
     1
102
RTVSPropertyOp2
 70
     1
102
RTVSPropertyOp3
 70
     1
102
RTVSPropertyOp4
 70
     1
102
RTVSPropertyOp5
 70
     1
102
RTVSPropertyOp6
 70
     1
102
RTVSPropertyOp7
 70
     1
102
RTVSPropertyOp8
 70
     1
102
RTVSPropertyOp9
 70
     1
102
RTVSPropertyOp10
 70
     1
102
RTVSPropertyOp11
 70
     1
102
RTVSPropertyOp12
 70
     1
102
RTVSPropertyOp13
 70
     1
102
RTVSPropertyOp14
 70
     1
102
RTVSPropertyOp15
 70
     1
102
RTVSPropertyOp16
 70
     1
102
RTVSPropertyOp17
 70
     1
102
RTVSPropertyOp18
 70
     1
102
RTVSPropertyOp19
 70
     1
102
RTVSPropertyOp20
 70
     1
102
RTVSPropertyOp21
 70
     1
102
RTVSPropertyOp22
 70
     1
102
RTVSPropertyOp23
 70
     1
102
RTVSPropertyOp24
 70
     1
102
RTVSPropertyOp25
 70
     1
102
RTVSPropertyOp26
 70
     1
102
RTVSPropertyOp27
 70
     1
102
RTVSPropertyOp28
 70
     1
102
RTVSPropertyOp29
 70
     1
102
RTVSPropertyOp30
 70
     1
102
RTVSPropertyOp31
 70
     1
102
RTVSPropertyOp32
 70
     1
102
RTVSPropertyOp33
 70
     1
102
RTVSPropertyOp34
 70
     1
102
RTVSPropertyOp35
 70
     1
102
RTVSPropertyOp36
 70
     1
102
RTVSPropertyOp37
 70
     1
102
RTVSPropertyOp38
 70
     1
102
RTVSPropertyOp39
 70
     1
102
RTVSPropertyOp40
 70
     1
102
RTVSPropertyOp41
 70
     1
102
RTVSPropertyOp42
 70
     1
102
RTVSPropertyOp43
 70
     1
102
RTVSPropertyOp44
 70
     1
102
RTVSPropertyOp45
 70
     1
102
RTVSPropertyOp46
 70
     1
102
RTVSPropertyOp47
 70
     1
102
RTVSPropertyOp48
 70
     1
102
RTVSPropertyOp49
 70
     1
102
RTVSPropertyOp50
 70
     1
102
RTVSPropertyOp51
 70
     0
102
RTVSPropertyOp52
 70
     0
102
RTVSPropertyOp53
 70
     1
102
RTVSPropertyOp54
 70
     1
102
RTVSPropertyOp55
 70
     1
102
RTVSPropertyOp56
 70
     1
102
RTVSPropertyOp57
 70
     1
102
RTVSPropertyOp58
 70
     1
102
RTVSPropertyOp59
 70
     1
102
RTVSPropertyOp60
 70
     1
102
RTVSPropertyOp61
 70
     1
102
RTVSPropertyOp62
 70
     1
  0
XRECORD
  5
404
102
{ACAD_REACTORS
330
403
102
}
330
403
100
AcDbXrecord
280
     1
102
RTVSPost2010Prop28
280
     0
102
RTVSPost2010PropOp28
 70
     1
102
RTVSPost2010Prop29
280
     1
102
RTVSPost2010PropOp29
 70
     1
102
RTVSPost2010Prop30
280
     1
102
RTVSPost2010PropOp30
 70
     1
102
RTVSPost2010Prop31
280
     0
102
RTVSPost2010PropOp31
 70
     1
102
RTVSPost2010Prop32
280
     0
102
RTVSPost2010PropOp32
 70
     1
102
RTVSPost2010Prop33
280
     0
102
RTVSPost2010PropOp33
 70
     1
102
RTVSPost2010Prop34
280
     0
102
RTVSPost2010PropOp34
 70
     1
102
RTVSPost2010Prop35
280
     0
102
RTVSPost2010PropOp35
 70
     1
102
RTVSPost2010Prop36
280
     0
102
RTVSPost2010PropOp36
 70
     1
102
RTVSPost2010Prop37
 90
       50
102
RTVSPost2010PropOp37
 70
     1
102
RTVSPost2010Prop38
140
0.0
102
RTVSPost2010PropOp38
 70
     1
102
RTVSPost2010Prop39
140
1.0
102
RTVSPost2010PropOp39
 70
     1
102
RTVSPost2010Prop40
 90
        0
102
RTVSPost2010PropOp40
 70
     1
102
RTVSPost2010Prop41ColorIndex
 90
       18
102
RTVSPost2010Prop41ColorRGB
 90
        0
102
RTVSPost2010PropOp41
 70
     1
102
RTVSPost2010Prop42
 90
       50
102
RTVSPost2010PropOp42
 70
     1
102
RTVSPost2010Prop43
 90
        3
102
RTVSPost2010PropOp43
 70
     1
102
RTVSPost2010Prop44ColorIndex
 90
        5
102
RTVSPost2010Prop44ColorRGB
 90
      255
102
RTVSPost2010PropOp44
 70
     1
102
RTVSPost2010Prop45
280
     0
102
RTVSPost2010PropOp45
 70
     1
102
RTVSPost2010Prop46
 90
       50
102
RTVSPost2010PropOp46
 70
     1
102
RTVSPost2010Prop47
 90
       50
102
RTVSPost2010PropOp47
 70
     1
102
RTVSPost2010Prop48
 90
       50
102
RTVSPost2010PropOp48
 70
     1
102
RTVSPost2010Prop49
280
     0
102
RTVSPost2010PropOp49
 70
     1
102
RTVSPost2010Prop50
 90
       50
102
RTVSPost2010PropOp50
 70
     1
102
RTVSPost2010Prop51ColorIndex
 90
      256
102
RTVSPost2010Prop51ColorRGB
 90
-16777216
102
RTVSPost2010PropOp51
 70
     0
102
RTVSPost2010Prop52
140
1.0
102
RTVSPost2010PropOp52
 70
     0
102
RTVSPost2010Prop53
 90
        2
102
RTVSPost2010PropOp53
 70
     1
102
RTVSPost2010Prop54
  1
strokes_ogs.tif
102
RTVSPost2010PropOp54
 70
     1
102
RTVSPost2010Prop55
280
     0
102
RTVSPost2010PropOp55
 70
     1
102
RTVSPost2010Prop56
140
1.0
102
RTVSPost2010PropOp56
 70
     1
102
RTVSPost2010Prop57
140
1.0
102
RTVSPost2010PropOp57
 70
     1
102
RTVSPropertyOp0
 70
     1
102
RTVSPropertyOp1
 70
     1
102
RTVSPropertyOp2
 70
     1
102
RTVSPropertyOp3
 70
     1
102
RTVSPropertyOp4
 70
     1
102
RTVSPropertyOp5
 70
     1
102
RTVSPropertyOp6
 70
     1
102
RTVSPropertyOp7
 70
     1
102
RTVSPropertyOp8
 70
     1
102
RTVSPropertyOp9
 70
     1
102
RTVSPropertyOp10
 70
     1
102
RTVSPropertyOp11
 70
     1
102
RTVSPropertyOp12
 70
     1
102
RTVSPropertyOp13
 70
     1
102
RTVSPropertyOp14
 70
     1
102
RTVSPropertyOp15
 70
     1
102
RTVSPropertyOp16
 70
     1
102
RTVSPropertyOp17
 70
     1
102
RTVSPropertyOp18
 70
     1
102
RTVSPropertyOp19
 70
     1
102
RTVSPropertyOp20
 70
     1
102
RTVSPropertyOp21
 70
     1
102
RTVSPropertyOp22
 70
     1
102
RTVSPropertyOp23
 70
     1
102
RTVSPropertyOp24
 70
     1
102
RTVSPropertyOp25
 70
     1
102
RTVSPropertyOp26
 70
     1
102
RTVSPropertyOp27
 70
     1
102
RTVSPropertyOp28
 70
     1
102
RTVSPropertyOp29
 70
     1
102
RTVSPropertyOp30
 70
     1
102
RTVSPropertyOp31
 70
     1
102
RTVSPropertyOp32
 70
     1
102
RTVSPropertyOp33
 70
     1
102
RTVSPropertyOp34
 70
     1
102
RTVSPropertyOp35
 70
     1
102
RTVSPropertyOp36
 70
     1
102
RTVSPropertyOp37
 70
     1
102
RTVSPropertyOp38
 70
     1
102
RTVSPropertyOp39
 70
     1
102
RTVSPropertyOp40
 70
     1
102
RTVSPropertyOp41
 70
     1
102
RTVSPropertyOp42
 70
     1
102
RTVSPropertyOp43
 70
     1
102
RTVSPropertyOp44
 70
     1
102
RTVSPropertyOp45
 70
     1
102
RTVSPropertyOp46
 70
     1
102
RTVSPropertyOp47
 70
     1
102
RTVSPropertyOp48
 70
     1
102
RTVSPropertyOp49
 70
     1
102
RTVSPropertyOp50
 70
     1
102
RTVSPropertyOp51
 70
     0
102
RTVSPropertyOp52
 70
     0
102
RTVSPropertyOp53
 70
     1
102
RTVSPropertyOp54
 70
     1
102
RTVSPropertyOp55
 70
     1
102
RTVSPropertyOp56
 70
     1
102
RTVSPropertyOp57
 70
     1
102
RTVSPropertyOp58
 70
     1
102
RTVSPropertyOp59
 70
     1
102
RTVSPropertyOp60
 70
     1
102
RTVSPropertyOp61
 70
     1
102
RTVSPropertyOp62
 70
     1
  0
XRECORD
  5
41C
102
{ACAD_REACTORS
330
41B
102
}
330
41B
100
AcDbXrecord
280
     1
102
RTVSPost2010Prop28
280
     0
102
RTVSPost2010PropOp28
 70
     1
102
RTVSPost2010Prop29
280
     1
102
RTVSPost2010PropOp29
 70
     1
102
RTVSPost2010Prop30
280
     1
102
RTVSPost2010PropOp30
 70
     1
102
RTVSPost2010Prop31
280
     0
102
RTVSPost2010PropOp31
 70
     1
102
RTVSPost2010Prop32
280
     0
102
RTVSPost2010PropOp32
 70
     1
102
RTVSPost2010Prop33
280
     0
102
RTVSPost2010PropOp33
 70
     1
102
RTVSPost2010Prop34
280
     0
102
RTVSPost2010PropOp34
 70
     1
102
RTVSPost2010Prop35
280
     0
102
RTVSPost2010PropOp35
 70
     1
102
RTVSPost2010Prop36
280
     0
102
RTVSPost2010PropOp36
 70
     1
102
RTVSPost2010Prop37
 90
       50
102
RTVSPost2010PropOp37
 70
     1
102
RTVSPost2010Prop38
140
0.0
102
RTVSPost2010PropOp38
 70
     1
102
RTVSPost2010Prop39
140
1.0
102
RTVSPost2010PropOp39
 70
     1
102
RTVSPost2010Prop40
 90
        0
102
RTVSPost2010PropOp40
 70
     1
102
RTVSPost2010Prop41ColorIndex
 90
       18
102
RTVSPost2010Prop41ColorRGB
 90
        0
102
RTVSPost2010PropOp41
 70
     1
102
RTVSPost2010Prop42
 90
       50
102
RTVSPost2010PropOp42
 70
     1
102
RTVSPost2010Prop43
 90
        3
102
RTVSPost2010PropOp43
 70
     1
102
RTVSPost2010Prop44ColorIndex
 90
        5
102
RTVSPost2010Prop44ColorRGB
 90
      255
102
RTVSPost2010PropOp44
 70
     1
102
RTVSPost2010Prop45
280
     0
102
RTVSPost2010PropOp45
 70
     1
102
RTVSPost2010Prop46
 90
       50
102
RTVSPost2010PropOp46
 70
     1
102
RTVSPost2010Prop47
 90
       50
102
RTVSPost2010PropOp47
 70
     1
102
RTVSPost2010Prop48
 90
       50
102
RTVSPost2010PropOp48
 70
     1
102
RTVSPost2010Prop49
280
     0
102
RTVSPost2010PropOp49
 70
     1
102
RTVSPost2010Prop50
 90
       50
102
RTVSPost2010PropOp50
 70
     1
102
RTVSPost2010Prop51ColorIndex
 90
      256
102
RTVSPost2010Prop51ColorRGB
 90
-16777216
102
RTVSPost2010PropOp51
 70
     0
102
RTVSPost2010Prop52
140
1.0
102
RTVSPost2010PropOp52
 70
     0
102
RTVSPost2010Prop53
 90
        2
102
RTVSPost2010PropOp53
 70
     1
102
RTVSPost2010Prop54
  1
strokes_ogs.tif
102
RTVSPost2010PropOp54
 70
     1
102
RTVSPost2010Prop55
280
     0
102
RTVSPost2010PropOp55
 70
     1
102
RTVSPost2010Prop56
140
1.0
102
RTVSPost2010PropOp56
 70
     1
102
RTVSPost2010Prop57
140
1.0
102
RTVSPost2010PropOp57
 70
     1
102
RTVSPropertyOp0
 70
     1
102
RTVSPropertyOp1
 70
     1
102
RTVSPropertyOp2
 70
     1
102
RTVSPropertyOp3
 70
     1
102
RTVSPropertyOp4
 70
     1
102
RTVSPropertyOp5
 70
     1
102
RTVSPropertyOp6
 70
     1
102
RTVSPropertyOp7
 70
     1
102
RTVSPropertyOp8
 70
     1
102
RTVSPropertyOp9
 70
     1
102
RTVSPropertyOp10
 70
     1
102
RTVSPropertyOp11
 70
     1
102
RTVSPropertyOp12
 70
     1
102
RTVSPropertyOp13
 70
     1
102
RTVSPropertyOp14
 70
     1
102
RTVSPropertyOp15
 70
     1
102
RTVSPropertyOp16
 70
     1
102
RTVSPropertyOp17
 70
     1
102
RTVSPropertyOp18
 70
     1
102
RTVSPropertyOp19
 70
     1
102
RTVSPropertyOp20
 70
     1
102
RTVSPropertyOp21
 70
     1
102
RTVSPropertyOp22
 70
     1
102
RTVSPropertyOp23
 70
     1
102
RTVSPropertyOp24
 70
     1
102
RTVSPropertyOp25
 70
     1
102
RTVSPropertyOp26
 70
     1
102
RTVSPropertyOp27
 70
     1
102
RTVSPropertyOp28
 70
     1
102
RTVSPropertyOp29
 70
     1
102
RTVSPropertyOp30
 70
     1
102
RTVSPropertyOp31
 70
     1
102
RTVSPropertyOp32
 70
     1
102
RTVSPropertyOp33
 70
     1
102
RTVSPropertyOp34
 70
     1
102
RTVSPropertyOp35
 70
     1
102
RTVSPropertyOp36
 70
     1
102
RTVSPropertyOp37
 70
     1
102
RTVSPropertyOp38
 70
     1
102
RTVSPropertyOp39
 70
     1
102
RTVSPropertyOp40
 70
     1
102
RTVSPropertyOp41
 70
     1
102
RTVSPropertyOp42
 70
     1
102
RTVSPropertyOp43
 70
     1
102
RTVSPropertyOp44
 70
     1
102
RTVSPropertyOp45
 70
     1
102
RTVSPropertyOp46
 70
     1
102
RTVSPropertyOp47
 70
     1
102
RTVSPropertyOp48
 70
     1
102
RTVSPropertyOp49
 70
     1
102
RTVSPropertyOp50
 70
     1
102
RTVSPropertyOp51
 70
     0
102
RTVSPropertyOp52
 70
     0
102
RTVSPropertyOp53
 70
     1
102
RTVSPropertyOp54
 70
     1
102
RTVSPropertyOp55
 70
     1
102
RTVSPropertyOp56
 70
     1
102
RTVSPropertyOp57
 70
     1
102
RTVSPropertyOp58
 70
     1
102
RTVSPropertyOp59
 70
     1
102
RTVSPropertyOp60
 70
     1
102
RTVSPropertyOp61
 70
     1
102
RTVSPropertyOp62
 70
     1
  0
ENDSEC
  0
EOF
