  0
SECTION
  2
HEADER
  9
$ACADVER
  1
AC1015
  9
$ACADMAINTVER
 70
    20
  9
$DWGCODEPAGE
  3
ANSI_932
  9
$INSBASE
 10
0.0
 20
0.0
 30
0.0
  9
$EXTMIN
 10
10.0
 20
10.0
 30
0.0
  9
$EXTMAX
 10
287.0
 20
195.0
 30
0.0
  9
$LIMMIN
 10
0.0
 20
0.0
  9
$LIMMAX
 10
297.0
 20
210.0
  9
$ORTHOMODE
 70
     0
  9
$REGENMODE
 70
     1
  9
$FILLMODE
 70
     1
  9
$QTEXTMODE
 70
     0
  9
$MIRRTEXT
 70
     0
  9
$LTSCALE
 40
15.0
  9
$ATTMODE
 70
     1
  9
$TEXTSIZE
 40
0.2
  9
$TRACEWID
 40
0.05
  9
$TEXTSTYLE
  7
Standard
  9
$CLAYER
  8
CSLAYER18
  9
$CELTYPE
  6
ByLayer
  9
$CECOLOR
 62
   256
  9
$CELTSCALE
 40
1.0
  9
$DISPSILH
 70
     0
  9
$DIMSCALE
 40
1.0
  9
$DIMASZ
 40
0.18
  9
$DIMEXO
 40
0.0625
  9
$DIMDLI
 40
0.38
  9
$DIMRND
 40
0.0
  9
$DIMDLE
 40
0.0
  9
$DIMEXE
 40
0.18
  9
$DIMTP
 40
0.0
  9
$DIMTM
 40
0.0
  9
$DIMTXT
 40
0.18
  9
$DIMCEN
 40
0.09
  9
$DIMTSZ
 40
0.0
  9
$DIMTOL
 70
     0
  9
$DIMLIM
 70
     0
  9
$DIMTIH
 70
     1
  9
$DIMTOH
 70
     1
  9
$DIMSE1
 70
     0
  9
$DIMSE2
 70
     0
  9
$DIMTAD
 70
     0
  9
$DIMZIN
 70
     0
  9
$DIMBLK
  1

  9
$DIMASO
 70
     1
  9
$DIMSHO
 70
     1
  9
$DIMPOST
  1

  9
$DIMAPOST
  1

  9
$DIMALT
 70
     0
  9
$DIMALTD
 70
     2
  9
$DIMALTF
 40
25.4
  9
$DIMLFAC
 40
1.0
  9
$DIMTOFL
 70
     0
  9
$DIMTVP
 40
0.0
  9
$DIMTIX
 70
     0
  9
$DIMSOXD
 70
     0
  9
$DIMSAH
 70
     0
  9
$DIMBLK1
  1

  9
$DIMBLK2
  1

  9
$DIMSTYLE
  2
Standard
  9
$DIMCLRD
 70
     0
  9
$DIMCLRE
 70
     0
  9
$DIMCLRT
 70
     0
  9
$DIMTFAC
 40
1.0
  9
$DIMGAP
 40
0.09
  9
$DIMJUST
 70
     0
  9
$DIMSD1
 70
     0
  9
$DIMSD2
 70
     0
  9
$DIMTOLJ
 70
     1
  9
$DIMTZIN
 70
     0
  9
$DIMALTZ
 70
     0
  9
$DIMALTTZ
 70
     0
  9
$DIMUPT
 70
     0
  9
$DIMDEC
 70
     4
  9
$DIMTDEC
 70
     4
  9
$DIMALTU
 70
     2
  9
$DIMALTTD
 70
     2
  9
$DIMTXSTY
  7
Standard
  9
$DIMAUNIT
 70
     0
  9
$DIMADEC
 70
     0
  9
$DIMALTRND
 40
0.0
  9
$DIMAZIN
 70
     0
  9
$DIMDSEP
 70
    46
  9
$DIMATFIT
 70
     3
  9
$DIMFRAC
 70
     0
  9
$DIMLDRBLK
  1

  9
$DIMLUNIT
 70
     2
  9
$DIMLWD
 70
    -2
  9
$DIMLWE
 70
    -2
  9
$DIMTMOVE
 70
     0
  9
$LUNITS
 70
     2
  9
$LUPREC
 70
     4
  9
$SKETCHINC
 40
0.1
  9
$FILLETRAD
 40
0.0
  9
$AUNITS
 70
     0
  9
$AUPREC
 70
     0
  9
$MENU
  1
ACAD
  9
$ELEVATION
 40
0.0
  9
$PELEVATION
 40
0.0
  9
$THICKNESS
 40
0.0
  9
$LIMCHECK
 70
     0
  9
$CHAMFERA
 40
0.0
  9
$CHAMFERB
 40
0.0
  9
$CHAMFERC
 40
0.0
  9
$CHAMFERD
 40
0.0
  9
$SKPOLY
 70
     0
  9
$TDCREATE
 40
2453784.000000000
  9
$TDUCREATE
 40
2453783.625000000
  9
$TDUPDATE
 40
2458410.659988426
  9
$TDUUPDATE
 40
2458410.284988426
  9
$TDINDWG
 40
0.0015162037
  9
$TDUSRTIMER
 40
0.0015162037
  9
$USRTIMER
 70
     1
  9
$ANGBASE
 50
0.0
  9
$ANGDIR
 70
     0
  9
$PDMODE
 70
     0
  9
$PDSIZE
 40
0.0
  9
$PLINEWID
 40
0.0
  9
$SPLFRAME
 70
     0
  9
$SPLINETYPE
 70
     6
  9
$SPLINESEGS
 70
     8
  9
$HANDSEED
  5
561
  9
$SURFTAB1
 70
     6
  9
$SURFTAB2
 70
     6
  9
$SURFTYPE
 70
     6
  9
$SURFU
 70
     6
  9
$SURFV
 70
     6
  9
$UCSBASE
  2

  9
$UCSNAME
  2

  9
$UCSORG
 10
0.0
 20
0.0
 30
0.0
  9
$UCSXDIR
 10
1.0
 20
0.0
 30
0.0
  9
$UCSYDIR
 10
0.0
 20
1.0
 30
0.0
  9
$UCSORTHOREF
  2

  9
$UCSORTHOVIEW
 70
     0
  9
$UCSORGTOP
 10
0.0
 20
0.0
 30
0.0
  9
$UCSORGBOTTOM
 10
0.0
 20
0.0
 30
0.0
  9
$UCSORGLEFT
 10
0.0
 20
0.0
 30
0.0
  9
$UCSORGRIGHT
 10
0.0
 20
0.0
 30
0.0
  9
$UCSORGFRONT
 10
0.0
 20
0.0
 30
0.0
  9
$UCSORGBACK
 10
0.0
 20
0.0
 30
0.0
  9
$PUCSBASE
  2

  9
$PUCSNAME
  2

  9
$PUCSORG
 10
0.0
 20
0.0
 30
0.0
  9
$PUCSXDIR
 10
1.0
 20
0.0
 30
0.0
  9
$PUCSYDIR
 10
0.0
 20
1.0
 30
0.0
  9
$PUCSORTHOREF
  2

  9
$PUCSORTHOVIEW
 70
     0
  9
$PUCSORGTOP
 10
0.0
 20
0.0
 30
0.0
  9
$PUCSORGBOTTOM
 10
0.0
 20
0.0
 30
0.0
  9
$PUCSORGLEFT
 10
0.0
 20
0.0
 30
0.0
  9
$PUCSORGRIGHT
 10
0.0
 20
0.0
 30
0.0
  9
$PUCSORGFRONT
 10
0.0
 20
0.0
 30
0.0
  9
$PUCSORGBACK
 10
0.0
 20
0.0
 30
0.0
  9
$USERI1
 70
     0
  9
$USERI2
 70
     0
  9
$USERI3
 70
     0
  9
$USERI4
 70
     0
  9
$USERI5
 70
     0
  9
$USERR1
 40
0.0
  9
$USERR2
 40
0.0
  9
$USERR3
 40
0.0
  9
$USERR4
 40
0.0
  9
$USERR5
 40
0.0
  9
$WORLDVIEW
 70
     1
  9
$SHADEDGE
 70
     3
  9
$SHADEDIF
 70
    70
  9
$TILEMODE
 70
     1
  9
$MAXACTVP
 70
    64
  9
$PINSBASE
 10
0.0
 20
0.0
 30
0.0
  9
$PLIMCHECK
 70
     0
  9
$PEXTMIN
 10
1.000000000000000E+20
 20
1.000000000000000E+20
 30
1.000000000000000E+20
  9
$PEXTMAX
 10
-1.000000000000000E+20
 20
-1.000000000000000E+20
 30
-1.000000000000000E+20
  9
$PLIMMIN
 10
0.0
 20
0.0
  9
$PLIMMAX
 10
12.0
 20
9.0
  9
$UNITMODE
 70
     0
  9
$VISRETAIN
 70
     1
  9
$PLINEGEN
 70
     0
  9
$PSLTSCALE
 70
     1
  9
$TREEDEPTH
 70
  3020
  9
$CMLSTYLE
  2
Standard
  9
$CMLJUST
 70
     0
  9
$CMLSCALE
 40
1.0
  9
$PROXYGRAPHICS
 70
     1
  9
$MEASUREMENT
 70
     0
  9
$CELWEIGHT
370
    -1
  9
$ENDCAPS
280
     0
  9
$JOINSTYLE
280
     0
  9
$LWDISPLAY
290
     0
  9
$INSUNITS
 70
     0
  9
$HYPERLINKBASE
  1

  9
$STYLESHEET
  1

  9
$XEDIT
290
     1
  9
$CEPSNTYPE
380
     0
  9
$PSTYLEMODE
290
     1
  9
$FINGERPRINTGUID
  2
{95401EFF-F39B-4C41-8BAA-023305173D14}
  9
$VERSIONGUID
  2
{8F85E5D4-581C-5E4F-B54E-DE60316BEC68}
  9
$EXTNAMES
290
     1
  9
$PSVPSCALE
 40
0.0
  9
$OLESTARTUP
290
     0
  0
ENDSEC
  0
SECTION
  2
CLASSES
  0
CLASS
  1
ACDBDICTIONARYWDFLT
  2
AcDbDictionaryWithDefault
  3
ObjectDBX Classes
 90
        0
280
     0
281
     0
  0
CLASS
  1
MATERIAL
  2
AcDbMaterial
  3
ObjectDBX Classes
 90
     1153
280
     0
281
     0
  0
CLASS
  1
VISUALSTYLE
  2
AcDbVisualStyle
  3
ObjectDBX Classes
 90
     4095
280
     0
281
     0
  0
CLASS
  1
SCALE
  2
AcDbScale
  3
ObjectDBX Classes
 90
     1153
280
     0
281
     0
  0
CLASS
  1
TABLESTYLE
  2
AcDbTableStyle
  3
ObjectDBX Classes
 90
     4095
280
     0
281
     0
  0
CLASS
  1
MLEADERSTYLE
  2
AcDbMLeaderStyle
  3
ACDB_MLEADERSTYLE_CLASS
 90
     4095
280
     0
281
     0
  0
CLASS
  1
ACDBSECTIONVIEWSTYLE
  2
AcDbSectionViewStyle
  3
ObjectDBX Classes
 90
     1025
280
     0
281
     0
  0
CLASS
  1
ACDBDETAILVIEWSTYLE
  2
AcDbDetailViewStyle
  3
ObjectDBX Classes
 90
     1025
280
     0
281
     0
  0
CLASS
  1
AMGSETTINGSOBJ
  2
AmgSettingsObj
  3
"AcadM|Product Description: AutoCAD Mechanical|Company: Autodesk, Inc."
 90
     1024
280
     0
281
     0
  0
CLASS
  1
ACME_DOCUMENT
  2
AcMeDbDoc
  3
AcMeServices
 90
     1024
280
     0
281
     0
  0
CLASS
  1
ACMESCOPE
  2
AcMeScope
  3
AcMeServices
 90
     1024
280
     0
281
     0
  0
CLASS
  1
ACMECOMMANDHISTORY
  2
AcMeCommandHistory
  3
AcMeServices
 90
     1024
280
     0
281
     0
  0
CLASS
  1
ACIMSYSVARMAN
  2
AcImSysVarManager
  3
AcMeServices
 90
     1024
280
     0
281
     0
  0
CLASS
  1
ACIMINTSYSVAR
  2
AcImIntSysVar
  3
AcMeServices
 90
     1024
280
     0
281
     0
  0
CLASS
  1
ACMESTATEMGR
  2
AcMeStateMgr
  3
AcMeServices
 90
     1024
280
     0
281
     0
  0
CLASS
  1
ACDBENTITYCACHE
  2
AcMeEntityCache
  3
AcMeServices
 90
     1024
280
     0
281
     0
  0
CLASS
  1
ACGREFMASTER
  2
AcGrefMaster
  3
AcAttribServices
 90
     1024
280
     0
281
     0
  0
CLASS
  1
ACME_DATABASE
  2
AcMeDbDatabase
  3
AcMeServices
 90
     1024
280
     0
281
     0
  0
CLASS
  1
ACRFINSADJUSTERMGR
  2
AcRfInsAdjusterMgr
  3
AcMeServices
 90
     1024
280
     0
281
     0
  0
CLASS
  1
ACGREFACADMASTER
  2
AcGrefacadMaster
  3
AcGrefServices
 90
     1024
280
     0
281
     0
  0
CLASS
  1
AMDTMENUSTATEMGR
  2
AmdtMenuStateMgr
  3
McadcomServices
 90
     1024
280
     0
281
     0
  0
CLASS
  1
AMDTMCOMMENUSTATE
  2
AmdtMcomMenuState
  3
McadcomServices
 90
     1024
280
     0
281
     0
  0
CLASS
  1
AMIMASTER
  2
AmiMaster
  3
AmiServices
 90
     1024
280
     0
281
     0
  0
CLASS
  1
MAPIAMMOUDLE
  2
MApiAmModule
  3
MApiAmServices
 90
     1024
280
     0
281
     0
  0
CLASS
  1
ACIMSTRSYSVAR
  2
AcImStrSysVar
  3
AcMeServices
 90
     1024
280
     0
281
     0
  0
CLASS
  1
AMDTAMMENUSTATE
  2
AmdtAmMenuState
  3
DesignerAssemblies
 90
     1024
280
     0
281
     0
  0
CLASS
  1
ACAMPROJECT
  2
AcAmProject
  3
DesignerAssemblies
 90
     1024
280
     0
281
     0
  0
CLASS
  1
ACAMGRCOMPDEF
  2
AcAmGrCompDef
  3
DesignerAssemblies
 90
     1024
280
     0
281
     0
  0
CLASS
  1
ACAMCOMPDEF
  2
AcAmCompDef
  3
DesignerAssemblies
 90
     1024
280
     0
281
     0
  0
CLASS
  1
ACAMCOMPDEFMGR
  2
AcAmCompDefMgr
  3
DesignerAssemblies
 90
     1024
280
     0
281
     0
  0
CLASS
  1
AMCONTEXTMGR
  2
AcAmContextMgr
  3
DesignerAssemblies
 90
     1024
280
     0
281
     0
  0
CLASS
  1
ACAMCONTEXTMODELER
  2
AcAmContextModeler
  3
DesignerAssemblies
 90
     1024
280
     0
281
     0
  0
CLASS
  1
ACMDATADICTIONARY
  2
AcmDataDictionary
  3
"AcmSymBB|Product Description: AutoCAD Mechanical|Company: Autodesk, Inc."
 90
     1024
280
     0
281
     0
  0
CLASS
  1
ACAMGRCOMPDEFSET
  2
AcAmGrCompDefSet
  3
DesignerAssemblies
 90
     1024
280
     0
281
     0
  0
CLASS
  1
AMDTBROWSERDBTAB
  2
AmdtBrowserDbTab
  3
McadcomServices
 90
     1024
280
     0
281
     0
  0
CLASS
  1
CBROWSERAPPOBJECT
  2
CBrowserAppObject
  3
McadcomServices
 90
     1024
280
     0
281
     0
  0
CLASS
  1
DM_PLACEHOLDER
  2
AcDmSelsetPlaceholder
  3
McadcomServices
 90
     1024
280
     0
281
     0
  0
CLASS
  1
ACMSTANDARDANSI
  2
AcmStandardANSI
  3
"Amdt_StdImp|Product Description: AutoCAD Mechanical|Company: Autodesk, Inc."
 90
     1024
280
     0
281
     0
  0
CLASS
  1
ACMSURFSTANDARDANSI
  2
AcmSurfTextStdANSI
  3
"Amdt_StdImp|Product Description: AutoCAD Mechanical|Company: Autodesk, Inc."
 90
     1024
280
     0
281
     0
  0
CLASS
  1
ACMFCFSTANDARDANSI
  2
AcmFCFStdANSI
  3
"Amdt_StdImp|Product Description: AutoCAD Mechanical|Company: Autodesk, Inc."
 90
     1024
280
     0
281
     0
  0
CLASS
  1
ACMWELDSTANDARDANSI
  2
AcmWeldingStdANSI
  3
"Amdt_StdImp|Product Description: AutoCAD Mechanical|Company: Autodesk, Inc."
 90
     1024
280
     0
281
     0
  0
CLASS
  1
ACMIDSTANDARDANSI
  2
AcmIdStdANSI
  3
"Amdt_StdImp|Product Description: AutoCAD Mechanical|Company: Autodesk, Inc."
 90
     1024
280
     0
281
     0
  0
CLASS
  1
ACMDATUMSTANDARDANSI
  2
AcmDatumStdANSI
  3
"Amdt_StdImp|Product Description: AutoCAD Mechanical|Company: Autodesk, Inc."
 90
     1024
280
     0
281
     0
  0
CLASS
  1
ACMBOMSTANDARDANSI
  2
AcmBOMStdANSI
  3
"Amdt_StdImp|Product Description: AutoCAD Mechanical|Company: Autodesk, Inc."
 90
     1024
280
     0
281
     0
  0
CLASS
  1
ACMDETAILSTANDARDANSI
  2
AmdtDetailSymStdANSI
  3
"Amdt_StdImp|Product Description: AutoCAD Mechanical|Company: Autodesk, Inc."
 90
     1024
280
     0
281
     0
  0
CLASS
  1
ACMSECTIONSTANDARDANSI
  2
AmdtSectionSymStdANSI
  3
"Amdt_StdImp|Product Description: AutoCAD Mechanical|Company: Autodesk, Inc."
 90
     1024
280
     0
281
     0
  0
CLASS
  1
ACMCENTERLINESTANDARDANSI
  2
AmdtCenterLineStdANSI
  3
"Amdt_StdImp|Product Description: AutoCAD Mechanical|Company: Autodesk, Inc."
 90
     1024
280
     0
281
     0
  0
CLASS
  1
ACMTHREADLINESTANDARDANSI
  2
AmdtThreadLineStdANSI
  3
"Amdt_StdImp|Product Description: AutoCAD Mechanical|Company: Autodesk, Inc."
 90
     1024
280
     0
281
     0
  0
CLASS
  1
ACMNOTESTANDARDANSI
  2
AmdtNoteStdANSI
  3
"Amdt_StdImp|Product Description: AutoCAD Mechanical|Company: Autodesk, Inc."
 90
     1024
280
     0
281
     0
  0
CLASS
  1
ACMTAPERSTANDARDANSI
  2
AcmTaperStdANSI
  3
"Amdt_StdImp|Product Description: AutoCAD Mechanical|Company: Autodesk, Inc."
 90
     1024
280
     0
281
     0
  0
CLASS
  1
ACMANOOTATIONVIEWSTANDARDANSI
  2
AmdtAnViewStdANSI
  3
"Amdt_StdImp|Product Description: AutoCAD Mechanical|Company: Autodesk, Inc."
 90
     1024
280
     0
281
     0
  0
CLASS
  1
ACAMGLAYSTD
  2
AcAmgLayStd
  3
"AmgLay|Product Description: AutoCAD Mechanical|Company: Autodesk, Inc."
 90
     1024
280
     0
281
     0
  0
CLASS
  1
ACAMGDIMSTD
  2
AcAmgDimStd
  3
"AmgDim|Product Description: AutoCAD Mechanical|Company: Autodesk, Inc."
 90
     1024
280
     0
281
     0
  0
CLASS
  1
AMGOBJPROPCFG
  2
AmgObjPropCfg
  3
"AmgLay|Product Description: AutoCAD Mechanical|Company: Autodesk, Inc."
 90
     1024
280
     0
281
     0
  0
CLASS
  1
ACAMGHOLECHARTSTDANSI
  2
AcAmgHoleChartStdANSI
  3
AmgDim|Product Description: AutoCAD Mechanical|Company: Autodesk, Inc.
 90
     1024
280
     0
281
     0
  0
CLASS
  1
ACAMGTITLESTD
  2
AcAmgTitleStd
  3
"AmgTitle|Product Description: AutoCAD Mechanical|Company: Autodesk, Inc."
 90
     1024
280
     0
281
     0
  0
CLASS
  1
ACMSECTIONSTANDARDCUSTOM
  2
AmdtSectionSymStdCustom
  3
"Amdt_StdImp|Product Description: AutoCAD Mechanical|Company: Autodesk, Inc."
 90
     1024
280
     0
281
     0
  0
CLASS
  1
ACMDETAILTANDARDCUSTOM
  2
AmdtDetailSymStdCustom
  3
"Amdt_StdImp|Product Description: AutoCAD Mechanical|Company: Autodesk, Inc."
 90
     1024
280
     0
281
     0
  0
CLASS
  1
FIELD
  2
AcDbField
  3
ObjectDBX Classes
 90
     1152
280
     0
281
     0
  0
CLASS
  1
FIELDLIST
  2
AcDbFieldList
  3
ObjectDBX Classes
 90
     1152
280
     0
281
     0
  0
CLASS
  1
AMDTNOTETEMPLATEDB
  2
AmdtNoteTemplateDB
  3
AcmSymBB|Product Description: AutoCAD Mechanical|Company: Autodesk, Inc.
 90
     1024
280
     0
281
     0
  0
CLASS
  1
ACAMGFILTERDAT
  2
AcAmgFilterDat
  3
"AcadM|Product Description: AutoCAD Mechanical|Company: Autodesk, Inc."
 90
     1024
280
     0
281
     0
  0
CLASS
  1
DICTIONARYVAR
  2
AcDbDictionaryVar
  3
ObjectDBX Classes
 90
        0
280
     0
281
     0
  0
CLASS
  1
CELLSTYLEMAP
  2
AcDbCellStyleMap
  3
ObjectDBX Classes
 90
     1152
280
     0
281
     0
  0
CLASS
  1
ACDBPLACEHOLDER
  2
AcDbPlaceHolder
  3
ObjectDBX Classes
 90
        0
280
     0
281
     0
  0
CLASS
  1
LAYOUT
  2
AcDbLayout
  3
ObjectDBX Classes
 90
        0
280
     0
281
     0
  0
ENDSEC
  0
SECTION
  2
TABLES
  0
TABLE
  2
VPORT
  5
8
330
0
100
AcDbSymbolTable
 70
     1
  0
VPORT
  5
90
330
8
100
AcDbSymbolTableRecord
100
AcDbViewportTableRecord
  2
*Active
 70
     0
 10
0.0
 20
0.0
 11
1.0
 21
1.0
 12
163.5543649448479
 22
99.54198729437036
 13
0.0
 23
0.0
 14
1.0
 24
1.0
 15
0.0
 25
0.0
 16
0.0
 26
0.0
 36
1.0
 17
0.0
 27
0.0
 37
0.0
 40
234.791879760839
 41
1.755994358251057
 42
50.0
 43
0.0
 44
0.0
 50
0.0
 51
0.0
 71
     0
 72
   100
 73
     1
 74
     1
 75
     0
 76
     0
 77
     0
 78
     0
281
     0
 65
     0
110
0.0
120
0.0
130
0.0
111
1.0
121
0.0
131
0.0
112
0.0
122
1.0
132
0.0
 79
     0
146
0.0
1001
ACAD_NAV_VCDISPLAY
1070
     3
  0
ENDTAB
  0
TABLE
  2
LTYPE
  5
5
330
0
100
AcDbSymbolTable
 70
    23
  0
LTYPE
  5
5A
330
5
100
AcDbSymbolTableRecord
100
AcDbLinetypeTableRecord
  2
ByBlock
 70
     0
  3

 72
    65
 73
     0
 40
0.0
  0
LTYPE
  5
5B
330
5
100
AcDbSymbolTableRecord
100
AcDbLinetypeTableRecord
  2
ByLayer
 70
     0
  3

 72
    65
 73
     0
 40
0.0
  0
LTYPE
  5
5C
330
5
100
AcDbSymbolTableRecord
100
AcDbLinetypeTableRecord
  2
CONTINUOUS
 70
     0
  3
Solid line
 72
    65
 73
     0
 40
0.0
  0
LTYPE
  5
74
330
5
100
AcDbSymbolTableRecord
100
AcDbLinetypeTableRecord
  2
DASHED
 70
     0
  3
__ __ __ __ __ __ __ __ __ __ __ __ __ __ __
 72
    65
 73
     2
 40
0.75
 49
0.5
 74
     0
 49
-0.25
 74
     0
  0
LTYPE
  5
75
330
5
100
AcDbSymbolTableRecord
100
AcDbLinetypeTableRecord
  2
HIDDEN
 70
     0
  3
_ _ _ _ _ _ _ _ _ _ _ _ _ _ _ _ _ _ _ _ _ _ _
 72
    65
 73
     2
 40
0.375
 49
0.25
 74
     0
 49
-0.125
 74
     0
  0
LTYPE
  5
76
330
5
100
AcDbSymbolTableRecord
100
AcDbLinetypeTableRecord
  2
DOT
 70
     0
  3
...............................................
 72
    65
 73
     2
 40
0.25
 49
0.0
 74
     0
 49
-0.25
 74
     0
  0
LTYPE
  5
77
330
5
100
AcDbSymbolTableRecord
100
AcDbLinetypeTableRecord
  2
DASHDOT
 70
     0
  3
__ . __ . __ . __ . __ . __ . __ . __ . __ . __
 72
    65
 73
     4
 40
1.0
 49
0.5
 74
     0
 49
-0.25
 74
     0
 49
0.0
 74
     0
 49
-0.25
 74
     0
  0
LTYPE
  5
78
330
5
100
AcDbSymbolTableRecord
100
AcDbLinetypeTableRecord
  2
DIVIDE
 70
     0
  3
__ . . __ . . __ . . __ . . __ . . __ . . __
 72
    65
 73
     6
 40
1.25
 49
0.5
 74
     0
 49
-0.25
 74
     0
 49
0.0
 74
     0
 49
-0.25
 74
     0
 49
0.0
 74
     0
 49
-0.25
 74
     0
  0
LTYPE
  5
79
330
5
100
AcDbSymbolTableRecord
100
AcDbLinetypeTableRecord
  2
CENTER
 70
     0
  3
____ _ ____ _ ____ _ ____ _ ____ _ ____ _ ____ 
 72
    65
 73
     4
 40
2.0
 49
1.25
 74
     0
 49
-0.25
 74
     0
 49
0.25
 74
     0
 49
-0.25
 74
     0
  0
LTYPE
  5
7A
330
5
100
AcDbSymbolTableRecord
100
AcDbLinetypeTableRecord
  2
PHANTOM
 70
     0
  3
______  __  __  ______  __  __  ______  __  __ 
 72
    65
 73
     6
 40
2.5
 49
1.25
 74
     0
 49
-0.25
 74
     0
 49
0.25
 74
     0
 49
-0.25
 74
     0
 49
0.25
 74
     0
 49
-0.25
 74
     0
  0
LTYPE
  5
7B
330
5
100
AcDbSymbolTableRecord
100
AcDbLinetypeTableRecord
  2
BORDER
 70
     0
  3
__ __ . __ __ . __ __ . __ __ . __ __ . __ __ .
 72
    65
 73
     6
 40
1.75
 49
0.5
 74
     0
 49
-0.25
 74
     0
 49
0.5
 74
     0
 49
-0.25
 74
     0
 49
0.0
 74
     0
 49
-0.25
 74
     0
  0
LTYPE
  5
470
330
5
100
AcDbSymbolTableRecord
100
AcDbLinetypeTableRecord
  2
PHANTOM2
 70
     0
  3
Phantom (.5x) ___ _ _ ___ _ _ ___ _ _ ___ _ _
 72
    65
 73
     6
 40
1.25
 49
0.625
 74
     0
 49
-0.125
 74
     0
 49
0.125
 74
     0
 49
-0.125
 74
     0
 49
0.125
 74
     0
 49
-0.125
 74
     0
  0
LTYPE
  5
4AA
330
5
100
AcDbSymbolTableRecord
100
AcDbLinetypeTableRecord
  2
AM_ISO02W050
 70
     0
  3
__ __ __ __ __ __ __ __ __ __ __ __ __ __ __
 72
    65
 73
     2
 40
7.5
 49
6.0
 74
     0
 49
-1.5
 74
     0
  0
LTYPE
  5
4AB
330
5
100
AcDbSymbolTableRecord
100
AcDbLinetypeTableRecord
  2
AM_ISO08W050
 70
     0
  3
____ . ____ . ____ . ____ . ____ . ____ . ____
 72
    65
 73
     4
 40
18.0
 49
12.0
 74
     0
 49
-1.5
 74
     0
 49
3.0
 74
     0
 49
-1.5
 74
     0
  0
LTYPE
  5
4AC
330
5
100
AcDbSymbolTableRecord
100
AcDbLinetypeTableRecord
  2
AM_ISO09W050
 70
     0
  3
_____ . . _____ . . _____ . . ____ .. ____
 72
    65
 73
     6
 40
22.5
 49
12.0
 74
     0
 49
-1.5
 74
     0
 49
3.0
 74
     0
 49
-1.5
 74
     0
 49
3.0
 74
     0
 49
-1.5
 74
     0
  0
LTYPE
  5
4AD
330
5
100
AcDbSymbolTableRecord
100
AcDbLinetypeTableRecord
  2
Amconstr
 70
     0
  3
_______________________
 72
    65
 73
     2
 40
9999.0
 49
9999.0
 74
     0
 49
0.0
 74
     0
  0
LTYPE
  5
4AE
330
5
100
AcDbSymbolTableRecord
100
AcDbLinetypeTableRecord
  2
AM_ISO08W050x2
 70
     0
  3
__ . __ . __ . __ . __ . __
 72
    65
 73
     4
 40
9.0
 49
6.0
 74
     0
 49
-0.75
 74
     0
 49
1.5
 74
     0
 49
-0.75
 74
     0
  0
LTYPE
  5
4AF
330
5
100
AcDbSymbolTableRecord
100
AcDbLinetypeTableRecord
  2
AM_ISO02W050x2
 70
     0
  3
 _ _ _ _ _ _ _ _ _ _ _ _
 72
    65
 73
     2
 40
3.75
 49
3.0
 74
     0
 49
-0.75
 74
     0
  0
LTYPE
  5
4B2
330
5
100
AcDbSymbolTableRecord
100
AcDbLinetypeTableRecord
  2
Amzigzag
 70
     0
  3
/\/-/\/-/\/-/\/-/\/-/\/
 72
    65
 73
     2
 40
11.0001
 49
0.0001
 74
     4
 75
   136
340
4B1
 46
0.04
 50
0.0
 44
0.0
 45
0.0
 49
-11.0
 74
     0
  0
LTYPE
  5
4B3
330
5
100
AcDbSymbolTableRecord
100
AcDbLinetypeTableRecord
  2
CENTER2
 70
     0
  3
Center (.5x) ___ _ ___ _ ___ _ ___ _ ___ _ ___
 72
    65
 73
     4
 40
1.125
 49
0.75
 74
     0
 49
-0.125
 74
     0
 49
0.125
 74
     0
 49
-0.125
 74
     0
  0
LTYPE
  5
4B4
330
5
100
AcDbSymbolTableRecord
100
AcDbLinetypeTableRecord
  2
HIDDEN2
 70
     0
  3
Hidden (.5x) _ _ _ _ _ _ _ _ _ _ _ _ _ _ _ _ _
 72
    65
 73
     2
 40
0.1875
 49
0.125
 74
     0
 49
-0.0625
 74
     0
  0
LTYPE
  5
4B5
330
5
100
AcDbSymbolTableRecord
100
AcDbLinetypeTableRecord
  2
Amzigzag2
 70
     0
  3
/\/-/\/-/\/-/\/-/\/-/\/
 72
    65
 73
     2
 40
0.4401
 49
0.0001
 74
     4
 75
   136
340
4B1
 46
0.0016
 50
0.0
 44
0.0
 45
0.0
 49
-0.4400000000000001
 74
     0
  0
LTYPE
  5
4C5
330
5
100
AcDbSymbolTableRecord
100
AcDbLinetypeTableRecord
  2
ACANSTGB
 70
     0
  3
__ . . __ . .
 72
    65
 73
     6
 40
0.35433070866
 49
0.15748031496
 74
     0
 49
-0.03937007874
 74
     0
 49
0.03937007874
 74
     0
 49
-0.03937007874
 74
     0
 49
0.03937007874
 74
     0
 49
-0.03937007874
 74
     0
  0
LTYPE
  5
4C6
330
5
100
AcDbSymbolTableRecord
100
AcDbLinetypeTableRecord
  2
ACANSTGL
 70
     0
  3
_ _ _ _ _
 72
    65
 73
     2
 40
0.11811023622
 49
0.07874015748
 74
     0
 49
-0.03937007874
 74
     0
  0
ENDTAB
  0
TABLE
  2
LAYER
  5
2
330
0
100
AcDbSymbolTable
 70
    19
  0
LAYER
  5
54
102
{ACAD_XDICTIONARY
360
4EC
102
}
330
2
100
AcDbSymbolTableRecord
100
AcDbLayerTableRecord
  2
0
 70
     0
 62
     7
  6
CONTINUOUS
370
    -3
390
F
  0
LAYER
  5
73
102
{ACAD_XDICTIONARY
360
4EE
102
}
330
2
100
AcDbSymbolTableRecord
100
AcDbLayerTableRecord
  2
CSLAYER18
 70
     0
 62
     7
  6
CONTINUOUS
370
    -3
390
F
  0
LAYER
  5
7C
102
{ACAD_XDICTIONARY
360
4F0
102
}
330
2
100
AcDbSymbolTableRecord
100
AcDbLayerTableRecord
  2
CSLAYER1
 70
     0
 62
     7
  6
CONTINUOUS
370
    -3
390
F
  0
LAYER
  5
7D
102
{ACAD_XDICTIONARY
360
4F2
102
}
330
2
100
AcDbSymbolTableRecord
100
AcDbLayerTableRecord
  2
CSLAYER2
 70
     0
 62
     7
  6
CONTINUOUS
370
    -3
390
F
  0
LAYER
  5
7E
102
{ACAD_XDICTIONARY
360
4F4
102
}
330
2
100
AcDbSymbolTableRecord
100
AcDbLayerTableRecord
  2
CSLAYER3
 70
     0
 62
     7
  6
CONTINUOUS
370
    -3
390
F
  0
LAYER
  5
7F
102
{ACAD_XDICTIONARY
360
4F6
102
}
330
2
100
AcDbSymbolTableRecord
100
AcDbLayerTableRecord
  2
CSLAYER4
 70
     0
 62
     7
  6
CONTINUOUS
370
    -3
390
F
  0
LAYER
  5
80
102
{ACAD_XDICTIONARY
360
4F8
102
}
330
2
100
AcDbSymbolTableRecord
100
AcDbLayerTableRecord
  2
CSLAYER5
 70
     0
 62
     7
  6
CONTINUOUS
370
    -3
390
F
  0
LAYER
  5
81
102
{ACAD_XDICTIONARY
360
4FA
102
}
330
2
100
AcDbSymbolTableRecord
100
AcDbLayerTableRecord
  2
CSLAYER6
 70
     0
 62
     7
  6
CONTINUOUS
370
    -3
390
F
  0
LAYER
  5
82
102
{ACAD_XDICTIONARY
360
4FC
102
}
330
2
100
AcDbSymbolTableRecord
100
AcDbLayerTableRecord
  2
CSLAYER7
 70
     0
 62
     7
  6
CONTINUOUS
370
    -3
390
F
  0
LAYER
  5
83
102
{ACAD_XDICTIONARY
360
4FE
102
}
330
2
100
AcDbSymbolTableRecord
100
AcDbLayerTableRecord
  2
CSLAYER8
 70
     0
 62
     7
  6
CONTINUOUS
370
    -3
390
F
  0
LAYER
  5
84
102
{ACAD_XDICTIONARY
360
500
102
}
330
2
100
AcDbSymbolTableRecord
100
AcDbLayerTableRecord
  2
CSLAYER9
 70
     0
 62
     7
  6
CONTINUOUS
370
    -3
390
F
  0
LAYER
  5
85
102
{ACAD_XDICTIONARY
360
502
102
}
330
2
100
AcDbSymbolTableRecord
100
AcDbLayerTableRecord
  2
CSLAYER10
 70
     0
 62
     7
  6
CONTINUOUS
370
    -3
390
F
  0
LAYER
  5
86
102
{ACAD_XDICTIONARY
360
504
102
}
330
2
100
AcDbSymbolTableRecord
100
AcDbLayerTableRecord
  2
CSLAYER11
 70
     0
 62
     7
  6
CONTINUOUS
370
    -3
390
F
  0
LAYER
  5
87
102
{ACAD_XDICTIONARY
360
506
102
}
330
2
100
AcDbSymbolTableRecord
100
AcDbLayerTableRecord
  2
CSLAYER12
 70
     0
 62
     7
  6
CONTINUOUS
370
    -3
390
F
  0
LAYER
  5
88
102
{ACAD_XDICTIONARY
360
508
102
}
330
2
100
AcDbSymbolTableRecord
100
AcDbLayerTableRecord
  2
CSLAYER13
 70
     0
 62
     7
  6
CONTINUOUS
370
    -3
390
F
  0
LAYER
  5
89
102
{ACAD_XDICTIONARY
360
50A
102
}
330
2
100
AcDbSymbolTableRecord
100
AcDbLayerTableRecord
  2
CSLAYER14
 70
     0
 62
     7
  6
CONTINUOUS
370
    -3
390
F
  0
LAYER
  5
8A
102
{ACAD_XDICTIONARY
360
50C
102
}
330
2
100
AcDbSymbolTableRecord
100
AcDbLayerTableRecord
  2
CSLAYER15
 70
     0
 62
     7
  6
CONTINUOUS
370
    -3
390
F
  0
LAYER
  5
8B
102
{ACAD_XDICTIONARY
360
50E
102
}
330
2
100
AcDbSymbolTableRecord
100
AcDbLayerTableRecord
  2
CSLAYER16
 70
     0
 62
     7
  6
CONTINUOUS
370
    -3
390
F
  0
LAYER
  5
1D7
102
{ACAD_XDICTIONARY
360
510
102
}
330
2
100
AcDbSymbolTableRecord
100
AcDbLayerTableRecord
  2
CSLAYER17
 70
     0
 62
     7
  6
CONTINUOUS
370
    -3
390
F
  0
ENDTAB
  0
TABLE
  2
STYLE
  5
3
330
0
100
AcDbSymbolTable
 70
     6
  0
STYLE
  5
55
330
3
100
AcDbSymbolTableRecord
100
AcDbTextStyleTableRecord
  2
Standard
 70
     0
 40
0.0
 41
1.0
 50
0.0
 71
     0
 42
0.2
  3
txt
  4

  0
STYLE
  5
59
330
3
100
AcDbSymbolTableRecord
100
AcDbTextStyleTableRecord
  2
Annotative
 70
     0
 40
0.0
 41
1.0
 50
0.0
 71
     0
 42
0.2
  3
txt
  4

1001
AcadAnnotative
1000
AnnotativeData
1002
{
1070
     1
1070
     1
1002
}
  0
STYLE
  5
8C
330
3
100
AcDbSymbolTableRecord
100
AcDbTextStyleTableRecord
  2
JX_FONT
 70
     0
 40
1.0
 41
1.0
 50
0.0
 71
     0
 42
1.0
  3
monotxt
  4
bigfont
  0
STYLE
  5
4B1
330
3
100
AcDbSymbolTableRecord
100
AcDbTextStyleTableRecord
  2

 70
     1
 40
0.0
 41
1.0
 50
0.0
 71
     0
 42
0.2
  3
genltshp.shx
  4

  0
STYLE
  5
4C3
330
3
100
AcDbSymbolTableRecord
100
AcDbTextStyleTableRecord
  2
ACANSTS
 70
     0
 40
0.0
 41
1.0
 50
0.0
 71
     0
 42
0.2
  3
romans.shx
  4
extfont.shx
  0
STYLE
  5
4C4
330
3
100
AcDbSymbolTableRecord
100
AcDbTextStyleTableRecord
  2
ACANSGDT
 70
     0
 40
0.0
 41
1.0
 50
0.0
 71
     0
 42
0.2
  3
amgdt.shx
  4

  0
ENDTAB
  0
TABLE
  2
VIEW
  5
6
330
0
100
AcDbSymbolTable
 70
     0
  0
ENDTAB
  0
TABLE
  2
UCS
  5
7
330
0
100
AcDbSymbolTable
 70
     0
  0
ENDTAB
  0
TABLE
  2
APPID
  5
9
330
0
100
AcDbSymbolTable
 70
    15
  0
APPID
  5
56
330
9
100
AcDbSymbolTableRecord
100
AcDbRegAppTableRecord
  2
ACAD
 70
     0
  0
APPID
  5
5D
330
9
100
AcDbSymbolTableRecord
100
AcDbRegAppTableRecord
  2
AcadAnnotative
 70
     0
  0
APPID
  5
469
330
9
100
AcDbSymbolTableRecord
100
AcDbRegAppTableRecord
  2
MCAD_NO_VIS
 70
     0
  0
APPID
  5
46A
330
9
100
AcDbSymbolTableRecord
100
AcDbRegAppTableRecord
  2
ACAD_TEMP_GRAPHIC
 70
     0
  0
APPID
  5
475
330
9
100
AcDbSymbolTableRecord
100
AcDbRegAppTableRecord
  2
ACATTRIBSERVICES
 70
     0
  0
APPID
  5
48D
330
9
100
AcDbSymbolTableRecord
100
AcDbRegAppTableRecord
  2
DESIGNERASSEMBLIES
 70
     0
  0
APPID
  5
4A7
330
9
100
AcDbSymbolTableRecord
100
AcDbRegAppTableRecord
  2
ACAD_DSTYLE_DIMJAG
 70
     0
  0
APPID
  5
4A8
330
9
100
AcDbSymbolTableRecord
100
AcDbRegAppTableRecord
  2
ACAD_DSTYLE_DIMBREAK
 70
     0
  0
APPID
  5
4E2
330
9
100
AcDbSymbolTableRecord
100
AcDbRegAppTableRecord
  2
ACAD_NAV_VCDISPLAY
 70
     0
  0
APPID
  5
4E3
330
9
100
AcDbSymbolTableRecord
100
AcDbRegAppTableRecord
  2
ACAD_EXEMPT_FROM_CAD_STANDARDS
 70
     0
  0
APPID
  5
554
330
9
100
AcDbSymbolTableRecord
100
AcDbRegAppTableRecord
  2
ACAD_MLEADERVER
 70
     0
  0
APPID
  5
55D
330
9
100
AcDbSymbolTableRecord
100
AcDbRegAppTableRecord
  2
ACAD_DSTYLE_DIMARC_LENGTH_SYMBOL
 70
     0
  0
APPID
  5
55E
330
9
100
AcDbSymbolTableRecord
100
AcDbRegAppTableRecord
  2
ACAD_DSTYLE_DIM_LINETYPE
 70
     0
  0
APPID
  5
55F
330
9
100
AcDbSymbolTableRecord
100
AcDbRegAppTableRecord
  2
ACAD_DSTYLE_DIM_EXT1_LINETYPE
 70
     0
  0
APPID
  5
560
330
9
100
AcDbSymbolTableRecord
100
AcDbRegAppTableRecord
  2
ACAD_DSTYLE_DIM_EXT2_LINETYPE
 70
     0
  0
ENDTAB
  0
TABLE
  2
DIMSTYLE
  5
A
330
0
100
AcDbSymbolTable
 70
     8
100
AcDbDimStyleTable
 71
     0
  0
DIMSTYLE
105
57
330
A
100
AcDbSymbolTableRecord
100
AcDbDimStyleTableRecord
  2
Standard
 70
     0
340
55
  0
DIMSTYLE
105
58
330
A
100
AcDbSymbolTableRecord
100
AcDbDimStyleTableRecord
  2
Annotative
 70
     0
340
55
1001
AcadAnnotative
1000
AnnotativeData
1002
{
1070
     1
1070
     1
1002
}
  0
DIMSTYLE
105
4A6
102
{ACAD_REACTORS
330
496
102
}
330
A
100
AcDbSymbolTableRecord
100
AcDbDimStyleTableRecord
  2
AM_ANSI
 70
     0
  4
mm
 41
0.12
 42
0.05
 43
0.5
 44
0.1
 47
0.1
 48
0.1
 78
     7
 79
     2
140
0.12
141
0.0
146
0.71
147
0.06
176
   256
177
   256
178
     2
274
     4
284
     7
340
55
371
    -1
372
    -1
1001
ACAD_DSTYLE_DIMJAG
1070
   388
1040
1.5
1001
ACAD_DSTYLE_DIMBREAK
1070
   391
1040
0.125
1001
ACAD_DSTYLE_DIMARC_LENGTH_SYMBOL
1070
   379
1070
     1
1001
ACAD_DSTYLE_DIM_LINETYPE
1070
   380
1005
5A
1001
ACAD_DSTYLE_DIM_EXT1_LINETYPE
1070
   381
1005
5A
1001
ACAD_DSTYLE_DIM_EXT2_LINETYPE
1070
   382
1005
5A
  0
DIMSTYLE
105
4B6
330
A
100
AcDbSymbolTableRecord
100
AcDbDimStyleTableRecord
  2
AM_ANSI$3
 70
     0
  4
mm
 41
0.12
 42
0.05
 43
0.5
 44
0.1
 47
0.1
 48
0.1
 78
     7
 79
     2
140
0.12
141
0.0
146
0.71
147
0.06
176
   256
177
   256
178
     2
274
     4
284
     7
288
     1
289
     0
340
55
371
    -1
372
    -1
1001
ACAD_DSTYLE_DIMBREAK
1070
   391
1040
0.125
1001
ACAD_DSTYLE_DIMJAG
1070
   388
1040
1.5
1001
ACAD_DSTYLE_DIMARC_LENGTH_SYMBOL
1070
   379
1070
     1
1001
ACAD_DSTYLE_DIM_LINETYPE
1070
   380
1005
5A
1001
ACAD_DSTYLE_DIM_EXT1_LINETYPE
1070
   381
1005
5A
1001
ACAD_DSTYLE_DIM_EXT2_LINETYPE
1070
   382
1005
5A
  0
DIMSTYLE
105
4B7
330
A
100
AcDbSymbolTableRecord
100
AcDbDimStyleTableRecord
  2
AM_ANSI$4
 70
     0
  4
mm
 41
0.12
 42
0.05
 43
0.5
 44
0.1
 47
0.1
 48
0.1
 78
     7
 79
     2
140
0.12
141
0.0
146
0.71
147
0.06
176
   256
177
   256
178
     2
274
     4
284
     7
288
     1
289
     0
340
55
371
    -1
372
    -1
1001
ACAD_DSTYLE_DIMBREAK
1070
   391
1040
0.125
1001
ACAD_DSTYLE_DIMJAG
1070
   388
1040
1.5
1001
ACAD_DSTYLE_DIMARC_LENGTH_SYMBOL
1070
   379
1070
     1
1001
ACAD_DSTYLE_DIM_LINETYPE
1070
   380
1005
5A
1001
ACAD_DSTYLE_DIM_EXT1_LINETYPE
1070
   381
1005
5A
1001
ACAD_DSTYLE_DIM_EXT2_LINETYPE
1070
   382
1005
5A
  0
DIMSTYLE
105
4B8
330
A
100
AcDbSymbolTableRecord
100
AcDbDimStyleTableRecord
  2
AM_ANSI$7
 70
     0
  4
mm
 41
0.12
 42
0.05
 43
0.5
 44
0.1
 47
0.1
 48
0.1
 78
     7
 79
     2
140
0.12
141
0.0
146
0.71
147
0.06
176
   256
177
   256
178
     2
274
     4
284
     7
340
55
371
    -1
372
    -1
1001
ACAD_DSTYLE_DIMBREAK
1070
   391
1040
0.125
1001
ACAD_DSTYLE_DIMJAG
1070
   388
1040
1.5
1001
ACAD_DSTYLE_DIMARC_LENGTH_SYMBOL
1070
   379
1070
     1
1001
ACAD_DSTYLE_DIM_LINETYPE
1070
   380
1005
5A
1001
ACAD_DSTYLE_DIM_EXT1_LINETYPE
1070
   381
1005
5A
1001
ACAD_DSTYLE_DIM_EXT2_LINETYPE
1070
   382
1005
5A
  0
DIMSTYLE
105
4B9
330
A
100
AcDbSymbolTableRecord
100
AcDbDimStyleTableRecord
  2
AM_ANSI$SF
 70
     0
  4
mm
 41
0.12
 42
0.05
 43
0.5
 44
0.1
 47
0.1
 48
0.1
 75
     1
 76
     1
 78
     7
 79
     2
140
0.12
141
0.0
146
0.71
147
0.06
176
   256
177
   256
178
     2
274
     4
284
     7
340
55
371
    -1
372
    -1
1001
ACAD_DSTYLE_DIMBREAK
1070
   391
1040
0.125
1001
ACAD_DSTYLE_DIMJAG
1070
   388
1040
1.5
1001
ACAD_DSTYLE_DIMARC_LENGTH_SYMBOL
1070
   379
1070
     1
1001
ACAD_DSTYLE_DIM_LINETYPE
1070
   380
1005
5A
1001
ACAD_DSTYLE_DIM_EXT1_LINETYPE
1070
   381
1005
5A
1001
ACAD_DSTYLE_DIM_EXT2_LINETYPE
1070
   382
1005
5A
  0
DIMSTYLE
105
4BE
330
A
100
AcDbSymbolTableRecord
100
AcDbDimStyleTableRecord
  2
AM_ANSI$SH
 70
     0
  4
mm
 41
0.12
 42
0.05
 43
0.5
 44
0.1
 47
0.1
 48
0.1
 75
     1
 76
     1
 78
     7
 79
     2
140
0.12
141
0.0
146
0.71
147
0.06
173
     1
176
   256
177
   256
178
     2
274
     4
284
     7
340
55
343
4BA
371
    -1
372
    -1
1001
ACAD_DSTYLE_DIMBREAK
1070
   391
1040
0.125
1001
ACAD_DSTYLE_DIMJAG
1070
   388
1040
1.5
1001
ACAD_DSTYLE_DIMARC_LENGTH_SYMBOL
1070
   379
1070
     1
1001
ACAD_DSTYLE_DIM_LINETYPE
1070
   380
1005
5A
1001
ACAD_DSTYLE_DIM_EXT1_LINETYPE
1070
   381
1005
5A
1001
ACAD_DSTYLE_DIM_EXT2_LINETYPE
1070
   382
1005
5A
  0
ENDTAB
  0
TABLE
  2
BLOCK_RECORD
  5
1
330
0
100
AcDbSymbolTable
 70
     5
  0
BLOCK_RECORD
  5
6F
330
1
100
AcDbSymbolTableRecord
100
AcDbBlockTableRecord
  2
*Model_Space
340
72
  0
BLOCK_RECORD
  5
6B
330
1
100
AcDbSymbolTableRecord
100
AcDbBlockTableRecord
  2
*Paper_Space
340
6E
  0
BLOCK_RECORD
  5
91
330
1
100
AcDbSymbolTableRecord
100
AcDbBlockTableRecord
  2
BLKF0000
340
0
102
{BLKREFS
331
3AC
102
}
  0
BLOCK_RECORD
  5
143
330
1
100
AcDbSymbolTableRecord
100
AcDbBlockTableRecord
  2
BLKF0001
340
0
102
{BLKREFS
331
3AD
102
}
  0
BLOCK_RECORD
  5
4BA
330
1
100
AcDbSymbolTableRecord
100
AcDbBlockTableRecord
  2
GENAXEH
340
0
  0
BLOCK_RECORD
  5
4C8
330
1
100
AcDbSymbolTableRecord
100
AcDbBlockTableRecord
  2
_ACMFILLEDHALF
340
0
  0
ENDTAB
  0
ENDSEC
  0
SECTION
  2
BLOCKS
  0
BLOCK
  5
70
330
6F
100
AcDbEntity
  8
0
100
AcDbBlockBegin
  2
*Model_Space
 70
     0
 10
0.0
 20
0.0
 30
0.0
  3
*Model_Space
  1

  0
ENDBLK
  5
71
330
6F
100
AcDbEntity
  8
0
100
AcDbBlockEnd
  0
BLOCK
  5
6C
330
6B
100
AcDbEntity
 67
     1
  8
0
100
AcDbBlockBegin
  2
*Paper_Space
 70
     0
 10
0.0
 20
0.0
 30
0.0
  3
*Paper_Space
  1

  0
ENDBLK
  5
6D
330
6B
100
AcDbEntity
 67
     1
  8
0
100
AcDbBlockEnd
  0
BLOCK
  5
92
330
91
100
AcDbEntity
  8
CSLAYER1
100
AcDbBlockBegin
  2
BLKF0000
 70
     0
 10
0.0
 20
0.0
 30
0.0
  3
BLKF0000
  1

  0
LINE
  5
93
330
91
100
AcDbEntity
  8
CSLAYER1
  6
Continuous
 62
     7
100
AcDbLine
 10
95.77402799999999
 20
69.80281999999999
 30
0.0
 11
98.69517100000001
 21
69.80281999999999
 31
0.0
  0
LINE
  5
94
330
91
100
AcDbEntity
  8
CSLAYER1
  6
Continuous
 62
     7
100
AcDbLine
 10
98.69517100000001
 20
69.80281999999999
 30
0.0
 11
98.69517100000001
 21
71.372344
 31
0.0
  0
LINE
  5
95
330
91
100
AcDbEntity
  8
CSLAYER1
  6
Continuous
 62
     7
100
AcDbLine
 10
98.69517100000001
 20
73.044725
 30
0.0
 11
95.78431399999999
 21
73.044725
 31
0.0
  0
LINE
  5
96
330
91
100
AcDbEntity
  8
CSLAYER1
  6
Continuous
 62
     7
100
AcDbLine
 10
95.78431399999999
 20
73.044725
 30
0.0
 11
95.78431399999999
 21
74.17234399999999
 31
0.0
  0
LINE
  5
97
330
91
100
AcDbEntity
  8
CSLAYER1
  6
Continuous
 62
     7
100
AcDbLine
 10
95.78431399999999
 20
74.17234399999999
 30
0.0
 11
95.7946
 21
74.218058
 31
0.0
  0
LINE
  5
98
330
91
100
AcDbEntity
  8
CSLAYER1
  6
Continuous
 62
     7
100
AcDbLine
 10
95.7946
 20
74.218058
 30
0.0
 11
95.80488499999999
 21
74.27139100000001
 31
0.0
  0
LINE
  5
99
330
91
100
AcDbEntity
  8
CSLAYER1
  6
Continuous
 62
     7
100
AcDbLine
 10
95.80488499999999
 20
74.27139100000001
 30
0.0
 11
95.81517099999999
 21
74.324725
 31
0.0
  0
LINE
  5
9A
330
91
100
AcDbEntity
  8
CSLAYER1
  6
Continuous
 62
     7
100
AcDbLine
 10
95.81517099999999
 20
74.324725
 30
0.0
 11
95.825457
 21
74.37805799999999
 31
0.0
  0
LINE
  5
9B
330
91
100
AcDbEntity
  8
CSLAYER1
  6
Continuous
 62
     7
100
AcDbLine
 10
95.825457
 20
74.37805799999999
 30
0.0
 11
95.856314
 21
74.423772
 31
0.0
  0
LINE
  5
9C
330
91
100
AcDbEntity
  8
CSLAYER1
  6
Continuous
 62
     7
100
AcDbLine
 10
95.856314
 20
74.423772
 30
0.0
 11
95.887171
 21
74.469487
 31
0.0
  0
LINE
  5
9D
330
91
100
AcDbEntity
  8
CSLAYER1
  6
Continuous
 62
     7
100
AcDbLine
 10
95.887171
 20
74.469487
 30
0.0
 11
95.91802800000001
 21
74.515201
 31
0.0
  0
LINE
  5
9E
330
91
100
AcDbEntity
  8
CSLAYER1
  6
Continuous
 62
     7
100
AcDbLine
 10
95.91802800000001
 20
74.515201
 30
0.0
 11
95.95917099999999
 21
74.553296
 31
0.0
  0
LINE
  5
9F
330
91
100
AcDbEntity
  8
CSLAYER1
  6
Continuous
 62
     7
100
AcDbLine
 10
95.95917099999999
 20
74.553296
 30
0.0
 11
96.0106
 21
74.591391
 31
0.0
  0
LINE
  5
A0
330
91
100
AcDbEntity
  8
CSLAYER1
  6
Continuous
 62
     7
100
AcDbLine
 10
96.0106
 20
74.591391
 30
0.0
 11
96.051742
 21
74.629487
 31
0.0
  0
LINE
  5
A1
330
91
100
AcDbEntity
  8
CSLAYER1
  6
Continuous
 62
     7
100
AcDbLine
 10
96.051742
 20
74.629487
 30
0.0
 11
96.10317100000001
 21
74.659963
 31
0.0
  0
LINE
  5
A2
330
91
100
AcDbEntity
  8
CSLAYER1
  6
Continuous
 62
     7
100
AcDbLine
 10
96.10317100000001
 20
74.659963
 30
0.0
 11
96.1546
 21
74.69043899999999
 31
0.0
  0
LINE
  5
A3
330
91
100
AcDbEntity
  8
CSLAYER1
  6
Continuous
 62
     7
100
AcDbLine
 10
96.1546
 20
74.69043899999999
 30
0.0
 11
96.206028
 21
74.713296
 31
0.0
  0
LINE
  5
A4
330
91
100
AcDbEntity
  8
CSLAYER1
  6
Continuous
 62
     7
100
AcDbLine
 10
96.206028
 20
74.713296
 30
0.0
 11
96.26774199999999
 21
74.736153
 31
0.0
  0
LINE
  5
A5
330
91
100
AcDbEntity
  8
CSLAYER1
  6
Continuous
 62
     7
100
AcDbLine
 10
96.26774199999999
 20
74.736153
 30
0.0
 11
96.329457
 21
74.75139099999999
 31
0.0
  0
LINE
  5
A6
330
91
100
AcDbEntity
  8
CSLAYER1
  6
Continuous
 62
     7
100
AcDbLine
 10
96.329457
 20
74.75139099999999
 30
0.0
 11
96.39117099999999
 21
74.75901
 31
0.0
  0
LINE
  5
A7
330
91
100
AcDbEntity
  8
CSLAYER1
  6
Continuous
 62
     7
100
AcDbLine
 10
96.39117099999999
 20
74.75901
 30
0.0
 11
96.463171
 21
74.766629
 31
0.0
  0
LINE
  5
A8
330
91
100
AcDbEntity
  8
CSLAYER1
  6
Continuous
 62
     7
100
AcDbLine
 10
96.463171
 20
74.766629
 30
0.0
 11
96.5146
 21
74.77424899999999
 31
0.0
  0
LINE
  5
A9
330
91
100
AcDbEntity
  8
CSLAYER1
  6
Continuous
 62
     7
100
AcDbLine
 10
96.5146
 20
74.77424899999999
 30
0.0
 11
96.57631399999999
 21
74.766629
 31
0.0
  0
LINE
  5
AA
330
91
100
AcDbEntity
  8
CSLAYER1
  6
Continuous
 62
     7
100
AcDbLine
 10
96.57631399999999
 20
74.766629
 30
0.0
 11
96.648314
 21
74.75901
 31
0.0
  0
LINE
  5
AB
330
91
100
AcDbEntity
  8
CSLAYER1
  6
Continuous
 62
     7
100
AcDbLine
 10
96.648314
 20
74.75901
 30
0.0
 11
96.71002800000001
 21
74.75139099999999
 31
0.0
  0
LINE
  5
AC
330
91
100
AcDbEntity
  8
CSLAYER1
  6
Continuous
 62
     7
100
AcDbLine
 10
96.71002800000001
 20
74.75139099999999
 30
0.0
 11
96.77174200000001
 21
74.736153
 31
0.0
  0
LINE
  5
AD
330
91
100
AcDbEntity
  8
CSLAYER1
  6
Continuous
 62
     7
100
AcDbLine
 10
96.77174200000001
 20
74.736153
 30
0.0
 11
96.833457
 21
74.713296
 31
0.0
  0
LINE
  5
AE
330
91
100
AcDbEntity
  8
CSLAYER1
  6
Continuous
 62
     7
100
AcDbLine
 10
96.833457
 20
74.713296
 30
0.0
 11
96.884885
 21
74.69043899999999
 31
0.0
  0
LINE
  5
AF
330
91
100
AcDbEntity
  8
CSLAYER1
  6
Continuous
 62
     7
100
AcDbLine
 10
96.884885
 20
74.69043899999999
 30
0.0
 11
96.93631400000001
 21
74.659963
 31
0.0
  0
LINE
  5
B0
330
91
100
AcDbEntity
  8
CSLAYER1
  6
Continuous
 62
     7
100
AcDbLine
 10
96.93631400000001
 20
74.659963
 30
0.0
 11
96.987742
 21
74.629487
 31
0.0
  0
LINE
  5
B1
330
91
100
AcDbEntity
  8
CSLAYER1
  6
Continuous
 62
     7
100
AcDbLine
 10
96.987742
 20
74.629487
 30
0.0
 11
97.028885
 21
74.591391
 31
0.0
  0
LINE
  5
B2
330
91
100
AcDbEntity
  8
CSLAYER1
  6
Continuous
 62
     7
100
AcDbLine
 10
97.028885
 20
74.591391
 30
0.0
 11
97.08031400000001
 21
74.553296
 31
0.0
  0
LINE
  5
B3
330
91
100
AcDbEntity
  8
CSLAYER1
  6
Continuous
 62
     7
100
AcDbLine
 10
97.08031400000001
 20
74.553296
 30
0.0
 11
97.121457
 21
74.515201
 31
0.0
  0
LINE
  5
B4
330
91
100
AcDbEntity
  8
CSLAYER1
  6
Continuous
 62
     7
100
AcDbLine
 10
97.121457
 20
74.515201
 30
0.0
 11
97.152314
 21
74.469487
 31
0.0
  0
LINE
  5
B5
330
91
100
AcDbEntity
  8
CSLAYER1
  6
Continuous
 62
     7
100
AcDbLine
 10
97.152314
 20
74.469487
 30
0.0
 11
97.183171
 21
74.423772
 31
0.0
  0
LINE
  5
B6
330
91
100
AcDbEntity
  8
CSLAYER1
  6
Continuous
 62
     7
100
AcDbLine
 10
97.183171
 20
74.423772
 30
0.0
 11
97.21402799999999
 21
74.37805799999999
 31
0.0
  0
LINE
  5
B7
330
91
100
AcDbEntity
  8
CSLAYER1
  6
Continuous
 62
     7
100
AcDbLine
 10
97.21402799999999
 20
74.37805799999999
 30
0.0
 11
97.22431400000001
 21
74.324725
 31
0.0
  0
LINE
  5
B8
330
91
100
AcDbEntity
  8
CSLAYER1
  6
Continuous
 62
     7
100
AcDbLine
 10
97.22431400000001
 20
74.324725
 30
0.0
 11
97.23460000000001
 21
74.27139100000001
 31
0.0
  0
LINE
  5
B9
330
91
100
AcDbEntity
  8
CSLAYER1
  6
Continuous
 62
     7
100
AcDbLine
 10
97.23460000000001
 20
74.27139100000001
 30
0.0
 11
97.24488499999999
 21
74.218058
 31
0.0
  0
LINE
  5
BA
330
91
100
AcDbEntity
  8
CSLAYER1
  6
Continuous
 62
     7
100
AcDbLine
 10
97.24488499999999
 20
74.218058
 30
0.0
 11
97.24488499999999
 21
74.179963
 31
0.0
  0
LINE
  5
BB
330
91
100
AcDbEntity
  8
CSLAYER1
  6
Continuous
 62
     7
100
AcDbLine
 10
97.24488499999999
 20
74.179963
 30
0.0
 11
97.24488499999999
 21
73.044725
 31
0.0
  0
LINE
  5
BC
330
91
100
AcDbEntity
  8
CSLAYER1
  6
Continuous
 62
     7
100
AcDbLine
 10
98.69517100000001
 20
76.45424799999999
 30
0.0
 11
95.77402799999999
 21
76.46186800000001
 31
0.0
  0
LINE
  5
BD
330
91
100
AcDbEntity
  8
CSLAYER1
  6
Continuous
 62
     7
100
AcDbLine
 10
95.77402799999999
 20
76.46186800000001
 30
0.0
 11
95.77402799999999
 21
78.03901
 31
0.0
  0
LINE
  5
BE
330
91
100
AcDbEntity
  8
CSLAYER1
  6
Continuous
 62
     7
100
AcDbLine
 10
97.327171
 20
77.77234399999999
 30
0.0
 11
97.327171
 21
76.46186800000001
 31
0.0
  0
LINE
  5
BF
330
91
100
AcDbEntity
  8
CSLAYER1
  6
Continuous
 62
     7
100
AcDbLine
 10
97.24488499999999
 20
79.55139100000001
 30
0.0
 11
97.24488499999999
 21
81.54758199999999
 31
0.0
  0
LINE
  5
C0
330
91
100
AcDbEntity
  8
CSLAYER1
  6
Continuous
 62
     7
100
AcDbLine
 10
98.63345699999999
 20
83.04472500000001
 30
0.0
 11
98.53060000000001
 21
83.04472500000001
 31
0.0
  0
LINE
  5
C1
330
91
100
AcDbEntity
  8
CSLAYER1
  6
Continuous
 62
     7
100
AcDbLine
 10
98.53060000000001
 20
83.04472500000001
 30
0.0
 11
98.232314
 21
83.11329599999998
 31
0.0
  0
LINE
  5
C2
330
91
100
AcDbEntity
  8
CSLAYER1
  6
Continuous
 62
     7
100
AcDbLine
 10
98.232314
 20
83.11329599999998
 30
0.0
 11
98.04717099999999
 21
83.189486
 31
0.0
  0
LINE
  5
C3
330
91
100
AcDbEntity
  8
CSLAYER1
  6
Continuous
 62
     7
100
AcDbLine
 10
98.04717099999999
 20
83.189486
 30
0.0
 11
97.820885
 21
83.35710500000001
 31
0.0
  0
LINE
  5
C4
330
91
100
AcDbEntity
  8
CSLAYER1
  6
Continuous
 62
     7
100
AcDbLine
 10
98.63345699999999
 20
83.04472500000001
 30
0.0
 11
98.69517100000001
 21
83.04472500000001
 31
0.0
  0
LINE
  5
C5
330
91
100
AcDbEntity
  8
CSLAYER1
  6
Continuous
 62
     7
100
AcDbLine
 10
98.69517100000001
 20
83.04472500000001
 30
0.0
 11
98.705457
 21
84.781867
 31
0.0
  0
LINE
  5
C6
330
91
100
AcDbEntity
  8
CSLAYER1
  6
Continuous
 62
     7
100
AcDbLine
 10
96.50431400000002
 20
83.12091499999999
 30
0.0
 11
96.19574200000002
 21
83.19710500000001
 31
0.0
  0
LINE
  5
C7
330
91
100
AcDbEntity
  8
CSLAYER1
  6
Continuous
 62
     7
100
AcDbLine
 10
96.19574200000002
 20
83.19710500000001
 30
0.0
 11
96.041457
 21
83.326629
 31
0.0
  0
LINE
  5
C8
330
91
100
AcDbEntity
  8
CSLAYER1
  6
Continuous
 62
     7
100
AcDbLine
 10
96.041457
 20
83.326629
 30
0.0
 11
95.876885
 21
83.56282
 31
0.0
  0
LINE
  5
C9
330
91
100
AcDbEntity
  8
CSLAYER1
  6
Continuous
 62
     7
100
AcDbLine
 10
95.876885
 20
83.56282
 30
0.0
 11
95.80488499999999
 21
83.83710500000001
 31
0.0
  0
LINE
  5
CA
330
91
100
AcDbEntity
  8
CSLAYER1
  6
Continuous
 62
     7
100
AcDbLine
 10
95.80488499999999
 20
83.83710500000001
 30
0.0
 11
95.80488499999999
 21
84.11139099999999
 31
0.0
  0
LINE
  5
CB
330
91
100
AcDbEntity
  8
CSLAYER1
  6
Continuous
 62
     7
100
AcDbLine
 10
95.80488499999999
 20
84.11139099999999
 30
0.0
 11
95.91802800000001
 21
84.385677
 31
0.0
  0
LINE
  5
CC
330
91
100
AcDbEntity
  8
CSLAYER1
  6
Continuous
 62
     7
100
AcDbLine
 10
95.91802800000001
 20
84.385677
 30
0.0
 11
96.07231400000001
 21
84.576153
 31
0.0
  0
LINE
  5
CD
330
91
100
AcDbEntity
  8
CSLAYER1
  6
Continuous
 62
     7
100
AcDbLine
 10
96.07231400000001
 20
84.576153
 30
0.0
 11
96.360314
 21
84.70567700000001
 31
0.0
  0
LINE
  5
CE
330
91
100
AcDbEntity
  8
CSLAYER1
  6
Continuous
 62
     7
100
AcDbLine
 10
96.360314
 20
84.69805799999999
 30
0.0
 11
96.689457
 21
84.70567700000001
 31
0.0
  0
LINE
  5
CF
330
91
100
AcDbEntity
  8
CSLAYER1
  6
Continuous
 62
     7
100
AcDbLine
 10
96.689457
 20
84.70567700000001
 30
0.0
 11
96.93631400000001
 21
84.59901
 31
0.0
  0
LINE
  5
D0
330
91
100
AcDbEntity
  8
CSLAYER1
  6
Continuous
 62
     7
100
AcDbLine
 10
96.93631400000001
 20
84.59901
 30
0.0
 11
97.152314
 21
84.36282
 31
0.0
  0
LINE
  5
D1
330
91
100
AcDbEntity
  8
CSLAYER1
  6
Continuous
 62
     7
100
AcDbLine
 10
97.152314
 20
84.36282
 30
0.0
 11
97.625457
 21
83.56282
 31
0.0
  0
LINE
  5
D2
330
91
100
AcDbEntity
  8
CSLAYER1
  6
Continuous
 62
     7
100
AcDbLine
 10
97.635742
 20
83.570439
 30
0.0
 11
97.8106
 21
83.349486
 31
0.0
  0
LINE
  5
D3
330
91
100
AcDbEntity
  8
CSLAYER1
  6
Continuous
 62
     7
100
AcDbLine
 10
98.63345699999999
 20
86.378058
 30
0.0
 11
98.53060000000001
 21
86.378058
 31
0.0
  0
LINE
  5
D4
330
91
100
AcDbEntity
  8
CSLAYER1
  6
Continuous
 62
     7
100
AcDbLine
 10
98.53060000000001
 20
86.378058
 30
0.0
 11
98.232314
 21
86.446629
 31
0.0
  0
LINE
  5
D5
330
91
100
AcDbEntity
  8
CSLAYER1
  6
Continuous
 62
     7
100
AcDbLine
 10
98.232314
 20
86.446629
 30
0.0
 11
98.04717099999999
 21
86.52281999999999
 31
0.0
  0
LINE
  5
D6
330
91
100
AcDbEntity
  8
CSLAYER1
  6
Continuous
 62
     7
100
AcDbLine
 10
98.04717099999999
 20
86.52281999999999
 30
0.0
 11
97.820885
 21
86.690439
 31
0.0
  0
LINE
  5
D7
330
91
100
AcDbEntity
  8
CSLAYER1
  6
Continuous
 62
     7
100
AcDbLine
 10
98.63345699999999
 20
86.378058
 30
0.0
 11
98.69517100000001
 21
86.378058
 31
0.0
  0
LINE
  5
D8
330
91
100
AcDbEntity
  8
CSLAYER1
  6
Continuous
 62
     7
100
AcDbLine
 10
98.69517100000001
 20
86.378058
 30
0.0
 11
98.705457
 21
88.115201
 31
0.0
  0
LINE
  5
D9
330
91
100
AcDbEntity
  8
CSLAYER1
  6
Continuous
 62
     7
100
AcDbLine
 10
96.50431400000002
 20
86.45424799999998
 30
0.0
 11
96.19574200000002
 21
86.530439
 31
0.0
  0
LINE
  5
DA
330
91
100
AcDbEntity
  8
CSLAYER1
  6
Continuous
 62
     7
100
AcDbLine
 10
96.19574200000002
 20
86.530439
 30
0.0
 11
96.041457
 21
86.65996300000001
 31
0.0
  0
LINE
  5
DB
330
91
100
AcDbEntity
  8
CSLAYER1
  6
Continuous
 62
     7
100
AcDbLine
 10
96.041457
 20
86.65996300000001
 30
0.0
 11
95.876885
 21
86.89615299999999
 31
0.0
  0
LINE
  5
DC
330
91
100
AcDbEntity
  8
CSLAYER1
  6
Continuous
 62
     7
100
AcDbLine
 10
95.876885
 20
86.89615299999999
 30
0.0
 11
95.80488499999999
 21
87.170439
 31
0.0
  0
LINE
  5
DD
330
91
100
AcDbEntity
  8
CSLAYER1
  6
Continuous
 62
     7
100
AcDbLine
 10
95.80488499999999
 20
87.170439
 30
0.0
 11
95.80488499999999
 21
87.44472399999999
 31
0.0
  0
LINE
  5
DE
330
91
100
AcDbEntity
  8
CSLAYER1
  6
Continuous
 62
     7
100
AcDbLine
 10
95.80488499999999
 20
87.44472399999999
 30
0.0
 11
95.91802800000001
 21
87.71900999999999
 31
0.0
  0
LINE
  5
DF
330
91
100
AcDbEntity
  8
CSLAYER1
  6
Continuous
 62
     7
100
AcDbLine
 10
95.91802800000001
 20
87.71900999999999
 30
0.0
 11
96.07231400000001
 21
87.909486
 31
0.0
  0
LINE
  5
E0
330
91
100
AcDbEntity
  8
CSLAYER1
  6
Continuous
 62
     7
100
AcDbLine
 10
96.07231400000001
 20
87.909486
 30
0.0
 11
96.360314
 21
88.03901000000001
 31
0.0
  0
LINE
  5
E1
330
91
100
AcDbEntity
  8
CSLAYER1
  6
Continuous
 62
     7
100
AcDbLine
 10
96.360314
 20
88.031391
 30
0.0
 11
96.689457
 21
88.03901000000001
 31
0.0
  0
LINE
  5
E2
330
91
100
AcDbEntity
  8
CSLAYER1
  6
Continuous
 62
     7
100
AcDbLine
 10
96.689457
 20
88.03901000000001
 30
0.0
 11
96.93631400000001
 21
87.93234299999999
 31
0.0
  0
LINE
  5
E3
330
91
100
AcDbEntity
  8
CSLAYER1
  6
Continuous
 62
     7
100
AcDbLine
 10
96.93631400000001
 20
87.93234299999999
 30
0.0
 11
97.152314
 21
87.69615300000001
 31
0.0
  0
LINE
  5
E4
330
91
100
AcDbEntity
  8
CSLAYER1
  6
Continuous
 62
     7
100
AcDbLine
 10
97.152314
 20
87.69615300000001
 30
0.0
 11
97.625457
 21
86.89615299999999
 31
0.0
  0
LINE
  5
E5
330
91
100
AcDbEntity
  8
CSLAYER1
  6
Continuous
 62
     7
100
AcDbLine
 10
97.635742
 20
86.903772
 30
0.0
 11
97.8106
 21
86.68281999999999
 31
0.0
  0
LINE
  5
E6
330
91
100
AcDbEntity
  8
CSLAYER1
  6
Continuous
 62
     7
100
AcDbLine
 10
97.913457
 20
89.764724
 30
0.0
 11
97.491742
 21
89.711391
 31
0.0
  0
LINE
  5
E7
330
91
100
AcDbEntity
  8
CSLAYER1
  6
Continuous
 62
     7
100
AcDbLine
 10
97.491742
 20
89.711391
 30
0.0
 11
97.142028
 21
89.711391
 31
0.0
  0
LINE
  5
E8
330
91
100
AcDbEntity
  8
CSLAYER1
  6
Continuous
 62
     7
100
AcDbLine
 10
97.142028
 20
89.711391
 30
0.0
 11
96.73059999999999
 21
89.734248
 31
0.0
  0
LINE
  5
E9
330
91
100
AcDbEntity
  8
CSLAYER1
  6
Continuous
 62
     7
100
AcDbLine
 10
96.73059999999999
 20
89.734248
 30
0.0
 11
96.39117099999999
 21
89.818058
 31
0.0
  0
LINE
  5
EA
330
91
100
AcDbEntity
  8
CSLAYER1
  6
Continuous
 62
     7
100
AcDbLine
 10
96.39117099999999
 20
89.818058
 30
0.0
 11
96.11345700000001
 21
89.955201
 31
0.0
  0
LINE
  5
EB
330
91
100
AcDbEntity
  8
CSLAYER1
  6
Continuous
 62
     7
100
AcDbLine
 10
96.11345700000001
 20
89.955201
 30
0.0
 11
95.8666
 21
90.22948599999999
 31
0.0
  0
LINE
  5
EC
330
91
100
AcDbEntity
  8
CSLAYER1
  6
Continuous
 62
     7
100
AcDbLine
 10
95.8666
 20
90.22948599999999
 30
0.0
 11
95.80488499999999
 21
90.435201
 31
0.0
  0
LINE
  5
ED
330
91
100
AcDbEntity
  8
CSLAYER1
  6
Continuous
 62
     7
100
AcDbLine
 10
95.80488499999999
 20
90.435201
 30
0.0
 11
95.81517099999999
 21
90.70948599999999
 31
0.0
  0
LINE
  5
EE
330
91
100
AcDbEntity
  8
CSLAYER1
  6
Continuous
 62
     7
100
AcDbLine
 10
95.81517099999999
 20
90.70948599999999
 30
0.0
 11
95.887171
 21
90.907581
 31
0.0
  0
LINE
  5
EF
330
91
100
AcDbEntity
  8
CSLAYER1
  6
Continuous
 62
     7
100
AcDbLine
 10
95.887171
 20
90.907581
 30
0.0
 11
96.09288499999999
 21
91.128534
 31
0.0
  0
LINE
  5
F0
330
91
100
AcDbEntity
  8
CSLAYER1
  6
Continuous
 62
     7
100
AcDbLine
 10
96.09288499999999
 20
91.128534
 30
0.0
 11
96.57631399999999
 21
91.37234300000001
 31
0.0
  0
LINE
  5
F1
330
91
100
AcDbEntity
  8
CSLAYER1
  6
Continuous
 62
     7
100
AcDbLine
 10
96.57631399999999
 20
91.37234300000001
 30
0.0
 11
96.967171
 21
91.440915
 31
0.0
  0
LINE
  5
F2
330
91
100
AcDbEntity
  8
CSLAYER1
  6
Continuous
 62
     7
100
AcDbLine
 10
96.967171
 20
91.440915
 30
0.0
 11
97.56374200000001
 21
91.43329599999999
 31
0.0
  0
LINE
  5
F3
330
91
100
AcDbEntity
  8
CSLAYER1
  6
Continuous
 62
     7
100
AcDbLine
 10
97.56374200000001
 20
91.43329599999999
 30
0.0
 11
97.9546
 21
91.364724
 31
0.0
  0
LINE
  5
F4
330
91
100
AcDbEntity
  8
CSLAYER1
  6
Continuous
 62
     7
100
AcDbLine
 10
97.9546
 20
91.364724
 30
0.0
 11
98.30431400000001
 21
91.21234300000001
 31
0.0
  0
LINE
  5
F5
330
91
100
AcDbEntity
  8
CSLAYER1
  6
Continuous
 62
     7
100
AcDbLine
 10
98.30431400000001
 20
91.21234300000001
 30
0.0
 11
98.53060000000001
 21
91.014248
 31
0.0
  0
LINE
  5
F6
330
91
100
AcDbEntity
  8
CSLAYER1
  6
Continuous
 62
     7
100
AcDbLine
 10
98.53060000000001
 20
91.014248
 30
0.0
 11
98.69517100000001
 21
90.68662900000001
 31
0.0
  0
LINE
  5
F7
330
91
100
AcDbEntity
  8
CSLAYER1
  6
Continuous
 62
     7
100
AcDbLine
 10
98.69517100000001
 20
90.68662900000001
 30
0.0
 11
98.69517100000001
 21
90.41234300000001
 31
0.0
  0
LINE
  5
F8
330
91
100
AcDbEntity
  8
CSLAYER1
  6
Continuous
 62
     7
100
AcDbLine
 10
98.69517100000001
 20
90.41234300000001
 30
0.0
 11
98.52031400000001
 21
90.09234300000001
 31
0.0
  0
LINE
  5
F9
330
91
100
AcDbEntity
  8
CSLAYER1
  6
Continuous
 62
     7
100
AcDbLine
 10
98.52031400000001
 20
90.09234300000001
 30
0.0
 11
98.35574200000001
 21
89.93996199999999
 31
0.0
  0
LINE
  5
FA
330
91
100
AcDbEntity
  8
CSLAYER1
  6
Continuous
 62
     7
100
AcDbLine
 10
98.35574200000001
 20
89.93996199999999
 30
0.0
 11
98.139742
 21
89.83329599999999
 31
0.0
  0
LINE
  5
FB
330
91
100
AcDbEntity
  8
CSLAYER1
  6
Continuous
 62
     7
100
AcDbLine
 10
98.139742
 20
89.83329599999999
 30
0.0
 11
97.913457
 21
89.764724
 31
0.0
  0
LINE
  5
FC
330
91
100
AcDbEntity
  8
CSLAYER1
  6
Continuous
 62
     7
100
AcDbLine
 10
97.39917099999999
 20
94.08853399999999
 30
0.0
 11
97.39917099999999
 21
94.75139099999999
 31
0.0
  0
LINE
  5
FD
330
91
100
AcDbEntity
  8
CSLAYER1
  6
Continuous
 62
     7
100
AcDbLine
 10
97.39917099999999
 20
94.75139099999999
 30
0.0
 11
97.820885
 21
94.75901
 31
0.0
  0
LINE
  5
FE
330
91
100
AcDbEntity
  8
CSLAYER1
  6
Continuous
 62
     7
100
AcDbLine
 10
97.820885
 20
94.75901
 30
0.0
 11
97.913457
 21
94.75139099999999
 31
0.0
  0
LINE
  5
FF
330
91
100
AcDbEntity
  8
CSLAYER1
  6
Continuous
 62
     7
100
AcDbLine
 10
97.913457
 20
94.75139099999999
 30
0.0
 11
97.985457
 21
94.74377199999999
 31
0.0
  0
LINE
  5
100
330
91
100
AcDbEntity
  8
CSLAYER1
  6
Continuous
 62
     7
100
AcDbLine
 10
97.985457
 20
94.74377199999999
 30
0.0
 11
98.05745700000001
 21
94.72091500000001
 31
0.0
  0
LINE
  5
101
330
91
100
AcDbEntity
  8
CSLAYER1
  6
Continuous
 62
     7
100
AcDbLine
 10
98.05745700000001
 20
94.72091500000001
 30
0.0
 11
98.139742
 21
94.70567700000001
 31
0.0
  0
LINE
  5
102
330
91
100
AcDbEntity
  8
CSLAYER1
  6
Continuous
 62
     7
100
AcDbLine
 10
98.139742
 20
94.70567700000001
 30
0.0
 11
98.20145699999999
 21
94.6752
 31
0.0
  0
LINE
  5
103
330
91
100
AcDbEntity
  8
CSLAYER1
  6
Continuous
 62
     7
100
AcDbLine
 10
98.20145699999999
 20
94.6752
 30
0.0
 11
98.273457
 21
94.644724
 31
0.0
  0
LINE
  5
104
330
91
100
AcDbEntity
  8
CSLAYER1
  6
Continuous
 62
     7
100
AcDbLine
 10
98.273457
 20
94.644724
 30
0.0
 11
98.33517100000001
 21
94.61424800000001
 31
0.0
  0
LINE
  5
105
330
91
100
AcDbEntity
  8
CSLAYER1
  6
Continuous
 62
     7
100
AcDbLine
 10
98.33517100000001
 20
94.61424800000001
 30
0.0
 11
98.39688500000001
 21
94.56853399999999
 31
0.0
  0
LINE
  5
106
330
91
100
AcDbEntity
  8
CSLAYER1
  6
Continuous
 62
     7
100
AcDbLine
 10
98.39688500000001
 20
94.56853399999999
 30
0.0
 11
98.448314
 21
94.522819
 31
0.0
  0
LINE
  5
107
330
91
100
AcDbEntity
  8
CSLAYER1
  6
Continuous
 62
     7
100
AcDbLine
 10
98.448314
 20
94.522819
 30
0.0
 11
98.468885
 21
94.50758099999999
 31
0.0
  0
LINE
  5
108
330
91
100
AcDbEntity
  8
CSLAYER1
  6
Continuous
 62
     7
100
AcDbLine
 10
98.468885
 20
94.50758099999999
 30
0.0
 11
98.53060000000001
 21
94.446629
 31
0.0
  0
LINE
  5
109
330
91
100
AcDbEntity
  8
CSLAYER1
  6
Continuous
 62
     7
100
AcDbLine
 10
98.53060000000001
 20
94.446629
 30
0.0
 11
98.582028
 21
94.39329599999998
 31
0.0
  0
LINE
  5
10A
330
91
100
AcDbEntity
  8
CSLAYER1
  6
Continuous
 62
     7
100
AcDbLine
 10
98.582028
 20
94.39329599999998
 30
0.0
 11
98.612885
 21
94.332343
 31
0.0
  0
LINE
  5
10B
330
91
100
AcDbEntity
  8
CSLAYER1
  6
Continuous
 62
     7
100
AcDbLine
 10
98.612885
 20
94.332343
 30
0.0
 11
98.654028
 21
94.27139100000001
 31
0.0
  0
LINE
  5
10C
330
91
100
AcDbEntity
  8
CSLAYER1
  6
Continuous
 62
     7
100
AcDbLine
 10
98.654028
 20
94.27139100000001
 30
0.0
 11
98.67460000000001
 21
94.210439
 31
0.0
  0
LINE
  5
10D
330
91
100
AcDbEntity
  8
CSLAYER1
  6
Continuous
 62
     7
100
AcDbLine
 10
98.67460000000001
 20
94.210439
 30
0.0
 11
98.69517100000001
 21
94.141867
 31
0.0
  0
LINE
  5
10E
330
91
100
AcDbEntity
  8
CSLAYER1
  6
Continuous
 62
     7
100
AcDbLine
 10
98.69517100000001
 20
94.141867
 30
0.0
 11
98.69517100000001
 21
94.08091500000001
 31
0.0
  0
LINE
  5
10F
330
91
100
AcDbEntity
  8
CSLAYER1
  6
Continuous
 62
     7
100
AcDbLine
 10
98.69517100000001
 20
94.08091500000001
 30
0.0
 11
98.69517100000001
 21
94.012343
 31
0.0
  0
LINE
  5
110
330
91
100
AcDbEntity
  8
CSLAYER1
  6
Continuous
 62
     7
100
AcDbLine
 10
98.69517100000001
 20
94.012343
 30
0.0
 11
98.69517100000001
 21
93.95901
 31
0.0
  0
LINE
  5
111
330
91
100
AcDbEntity
  8
CSLAYER1
  6
Continuous
 62
     7
100
AcDbLine
 10
98.69517100000001
 20
93.95901
 30
0.0
 11
98.69517100000001
 21
93.8752
 31
0.0
  0
LINE
  5
112
330
91
100
AcDbEntity
  8
CSLAYER1
  6
Continuous
 62
     7
100
AcDbLine
 10
98.69517100000001
 20
93.8752
 30
0.0
 11
98.69517100000001
 21
93.79139100000001
 31
0.0
  0
LINE
  5
113
330
91
100
AcDbEntity
  8
CSLAYER1
  6
Continuous
 62
     7
100
AcDbLine
 10
98.69517100000001
 20
93.79139100000001
 30
0.0
 11
98.68488499999999
 21
93.7152
 31
0.0
  0
LINE
  5
114
330
91
100
AcDbEntity
  8
CSLAYER1
  6
Continuous
 62
     7
100
AcDbLine
 10
98.68488499999999
 20
93.7152
 30
0.0
 11
98.654028
 21
93.646629
 31
0.0
  0
LINE
  5
115
330
91
100
AcDbEntity
  8
CSLAYER1
  6
Continuous
 62
     7
100
AcDbLine
 10
98.654028
 20
93.646629
 30
0.0
 11
98.612885
 21
93.570439
 31
0.0
  0
LINE
  5
116
330
91
100
AcDbEntity
  8
CSLAYER1
  6
Continuous
 62
     7
100
AcDbLine
 10
98.612885
 20
93.570439
 30
0.0
 11
98.57174200000001
 21
93.501867
 31
0.0
  0
LINE
  5
117
330
91
100
AcDbEntity
  8
CSLAYER1
  6
Continuous
 62
     7
100
AcDbLine
 10
98.57174200000001
 20
93.501867
 30
0.0
 11
98.51002800000001
 21
93.44091500000001
 31
0.0
  0
LINE
  5
118
330
91
100
AcDbEntity
  8
CSLAYER1
  6
Continuous
 62
     7
100
AcDbLine
 10
98.51002800000001
 20
93.44091500000001
 30
0.0
 11
98.45860000000001
 21
93.372343
 31
0.0
  0
LINE
  5
119
330
91
100
AcDbEntity
  8
CSLAYER1
  6
Continuous
 62
     7
100
AcDbLine
 10
98.45860000000001
 20
93.372343
 30
0.0
 11
98.39688500000001
 21
93.31901
 31
0.0
  0
LINE
  5
11A
330
91
100
AcDbEntity
  8
CSLAYER1
  6
Continuous
 62
     7
100
AcDbLine
 10
98.39688500000001
 20
93.31901
 30
0.0
 11
98.324885
 21
93.265677
 31
0.0
  0
LINE
  5
11B
330
91
100
AcDbEntity
  8
CSLAYER1
  6
Continuous
 62
     7
100
AcDbLine
 10
98.324885
 20
93.265677
 30
0.0
 11
98.25288499999999
 21
93.21996199999999
 31
0.0
  0
LINE
  5
11C
330
91
100
AcDbEntity
  8
CSLAYER1
  6
Continuous
 62
     7
100
AcDbLine
 10
98.25288499999999
 20
93.21996199999999
 30
0.0
 11
98.17059999999999
 21
93.17424799999999
 31
0.0
  0
LINE
  5
11D
330
91
100
AcDbEntity
  8
CSLAYER1
  6
Continuous
 62
     7
100
AcDbLine
 10
98.17059999999999
 20
93.17424799999999
 30
0.0
 11
98.088314
 21
93.143772
 31
0.0
  0
LINE
  5
11E
330
91
100
AcDbEntity
  8
CSLAYER1
  6
Continuous
 62
     7
100
AcDbLine
 10
98.088314
 20
93.143772
 30
0.0
 11
98.006028
 21
93.11329599999998
 31
0.0
  0
LINE
  5
11F
330
91
100
AcDbEntity
  8
CSLAYER1
  6
Continuous
 62
     7
100
AcDbLine
 10
98.006028
 20
93.11329599999998
 30
0.0
 11
97.90317100000001
 21
93.09805799999999
 31
0.0
  0
LINE
  5
120
330
91
100
AcDbEntity
  8
CSLAYER1
  6
Continuous
 62
     7
100
AcDbLine
 10
97.90317100000001
 20
93.09805799999999
 30
0.0
 11
97.70774200000001
 21
93.04472399999999
 31
0.0
  0
LINE
  5
121
330
91
100
AcDbEntity
  8
CSLAYER1
  6
Continuous
 62
     7
100
AcDbLine
 10
97.70774200000001
 20
93.04472399999999
 30
0.0
 11
97.491742
 21
93.029486
 31
0.0
  0
LINE
  5
122
330
91
100
AcDbEntity
  8
CSLAYER1
  6
Continuous
 62
     7
100
AcDbLine
 10
97.491742
 20
93.029486
 30
0.0
 11
97.27574200000001
 21
93.021867
 31
0.0
  0
LINE
  5
123
330
91
100
AcDbEntity
  8
CSLAYER1
  6
Continuous
 62
     7
100
AcDbLine
 10
97.27574200000001
 20
93.021867
 30
0.0
 11
97.05974199999999
 21
93.021867
 31
0.0
  0
LINE
  5
124
330
91
100
AcDbEntity
  8
CSLAYER1
  6
Continuous
 62
     7
100
AcDbLine
 10
97.05974199999999
 20
93.021867
 30
0.0
 11
96.843742
 21
93.03710500000001
 31
0.0
  0
LINE
  5
125
330
91
100
AcDbEntity
  8
CSLAYER1
  6
Continuous
 62
     7
100
AcDbLine
 10
96.843742
 20
93.03710500000001
 30
0.0
 11
96.638028
 21
93.0752
 31
0.0
  0
LINE
  5
126
330
91
100
AcDbEntity
  8
CSLAYER1
  6
Continuous
 62
     7
100
AcDbLine
 10
96.638028
 20
93.0752
 30
0.0
 11
96.56602800000001
 21
93.09805799999999
 31
0.0
  0
LINE
  5
127
330
91
100
AcDbEntity
  8
CSLAYER1
  6
Continuous
 62
     7
100
AcDbLine
 10
96.56602800000001
 20
93.09805799999999
 30
0.0
 11
96.473457
 21
93.11329599999998
 31
0.0
  0
LINE
  5
128
330
91
100
AcDbEntity
  8
CSLAYER1
  6
Continuous
 62
     7
100
AcDbLine
 10
96.473457
 20
93.11329599999998
 30
0.0
 11
96.39117099999999
 21
93.15139100000001
 31
0.0
  0
LINE
  5
129
330
91
100
AcDbEntity
  8
CSLAYER1
  6
Continuous
 62
     7
100
AcDbLine
 10
96.39117099999999
 20
93.15139100000001
 30
0.0
 11
96.30888500000001
 21
93.18186700000001
 31
0.0
  0
LINE
  5
12A
330
91
100
AcDbEntity
  8
CSLAYER1
  6
Continuous
 62
     7
100
AcDbLine
 10
96.30888500000001
 20
93.18186700000001
 30
0.0
 11
96.22660000000001
 21
93.22758099999999
 31
0.0
  0
LINE
  5
12B
330
91
100
AcDbEntity
  8
CSLAYER1
  6
Continuous
 62
     7
100
AcDbLine
 10
96.22660000000001
 20
93.22758099999999
 30
0.0
 11
96.1546
 21
93.273296
 31
0.0
  0
LINE
  5
12C
330
91
100
AcDbEntity
  8
CSLAYER1
  6
Continuous
 62
     7
100
AcDbLine
 10
96.1546
 20
93.273296
 30
0.0
 11
96.09288499999999
 21
93.33424800000001
 31
0.0
  0
LINE
  5
12D
330
91
100
AcDbEntity
  8
CSLAYER1
  6
Continuous
 62
     7
100
AcDbLine
 10
96.09288499999999
 20
93.33424800000001
 30
0.0
 11
96.020885
 21
93.38758100000001
 31
0.0
  0
LINE
  5
12E
330
91
100
AcDbEntity
  8
CSLAYER1
  6
Continuous
 62
     7
100
AcDbLine
 10
96.020885
 20
93.38758100000001
 30
0.0
 11
95.96945699999999
 21
93.44853399999999
 31
0.0
  0
LINE
  5
12F
330
91
100
AcDbEntity
  8
CSLAYER1
  6
Continuous
 62
     7
100
AcDbLine
 10
95.96945699999999
 20
93.44853399999999
 30
0.0
 11
95.91802800000001
 21
93.51710500000001
 31
0.0
  0
LINE
  5
130
330
91
100
AcDbEntity
  8
CSLAYER1
  6
Continuous
 62
     7
100
AcDbLine
 10
95.91802800000001
 20
93.51710500000001
 30
0.0
 11
95.876885
 21
93.585677
 31
0.0
  0
LINE
  5
131
330
91
100
AcDbEntity
  8
CSLAYER1
  6
Continuous
 62
     7
100
AcDbLine
 10
95.876885
 20
93.585677
 30
0.0
 11
95.846028
 21
93.661867
 31
0.0
  0
LINE
  5
132
330
91
100
AcDbEntity
  8
CSLAYER1
  6
Continuous
 62
     7
100
AcDbLine
 10
95.846028
 20
93.661867
 30
0.0
 11
95.825457
 21
93.73805799999999
 31
0.0
  0
LINE
  5
133
330
91
100
AcDbEntity
  8
CSLAYER1
  6
Continuous
 62
     7
100
AcDbLine
 10
95.825457
 20
93.73805799999999
 30
0.0
 11
95.80488499999999
 21
93.81424799999999
 31
0.0
  0
LINE
  5
134
330
91
100
AcDbEntity
  8
CSLAYER1
  6
Continuous
 62
     7
100
AcDbLine
 10
95.80488499999999
 20
93.81424799999999
 30
0.0
 11
95.7946
 21
93.890439
 31
0.0
  0
LINE
  5
135
330
91
100
AcDbEntity
  8
CSLAYER1
  6
Continuous
 62
     7
100
AcDbLine
 10
95.7946
 20
93.890439
 30
0.0
 11
95.7946
 21
93.966629
 31
0.0
  0
LINE
  5
136
330
91
100
AcDbEntity
  8
CSLAYER1
  6
Continuous
 62
     7
100
AcDbLine
 10
95.7946
 20
93.966629
 30
0.0
 11
95.7946
 21
94.04282
 31
0.0
  0
LINE
  5
137
330
91
100
AcDbEntity
  8
CSLAYER1
  6
Continuous
 62
     7
100
AcDbLine
 10
95.7946
 20
94.04282
 30
0.0
 11
95.81517099999999
 21
94.11901
 31
0.0
  0
LINE
  5
138
330
91
100
AcDbEntity
  8
CSLAYER1
  6
Continuous
 62
     7
100
AcDbLine
 10
95.81517099999999
 20
94.11901
 30
0.0
 11
95.825457
 21
94.1952
 31
0.0
  0
LINE
  5
139
330
91
100
AcDbEntity
  8
CSLAYER1
  6
Continuous
 62
     7
100
AcDbLine
 10
95.825457
 20
94.1952
 30
0.0
 11
95.856314
 21
94.27139100000001
 31
0.0
  0
LINE
  5
13A
330
91
100
AcDbEntity
  8
CSLAYER1
  6
Continuous
 62
     7
100
AcDbLine
 10
95.856314
 20
94.27139100000001
 30
0.0
 11
95.907742
 21
94.33996200000001
 31
0.0
  0
LINE
  5
13B
330
91
100
AcDbEntity
  8
CSLAYER1
  6
Continuous
 62
     7
100
AcDbLine
 10
95.907742
 20
94.33996200000001
 30
0.0
 11
95.93859999999999
 21
94.40853399999999
 31
0.0
  0
LINE
  5
13C
330
91
100
AcDbEntity
  8
CSLAYER1
  6
Continuous
 62
     7
100
AcDbLine
 10
95.93859999999999
 20
94.40853399999999
 30
0.0
 11
96.000314
 21
94.47710500000001
 31
0.0
  0
LINE
  5
13D
330
91
100
AcDbEntity
  8
CSLAYER1
  6
Continuous
 62
     7
100
AcDbLine
 10
96.000314
 20
94.47710500000001
 30
0.0
 11
96.051742
 21
94.53805799999999
 31
0.0
  0
LINE
  5
13E
330
91
100
AcDbEntity
  8
CSLAYER1
  6
Continuous
 62
     7
100
AcDbLine
 10
96.051742
 20
94.53805799999999
 30
0.0
 11
96.12374200000001
 21
94.59139099999999
 31
0.0
  0
LINE
  5
13F
330
91
100
AcDbEntity
  8
CSLAYER1
  6
Continuous
 62
     7
100
AcDbLine
 10
96.12374200000001
 20
94.59139099999999
 30
0.0
 11
96.19574200000002
 21
94.644724
 31
0.0
  0
LINE
  5
140
330
91
100
AcDbEntity
  8
CSLAYER1
  6
Continuous
 62
     7
100
AcDbLine
 10
96.19574200000002
 20
94.644724
 30
0.0
 11
96.26774199999999
 21
94.690439
 31
0.0
  0
LINE
  5
141
330
91
100
AcDbEntity
  8
CSLAYER1
  6
Continuous
 62
     7
100
AcDbLine
 10
96.26774199999999
 20
94.690439
 30
0.0
 11
96.28831400000001
 21
94.72091500000001
 31
0.0
  0
ENDBLK
  5
142
330
91
100
AcDbEntity
  8
0
100
AcDbBlockEnd
  0
BLOCK
  5
144
330
143
100
AcDbEntity
  8
CSLAYER1
100
AcDbBlockBegin
  2
BLKF0001
 70
     0
 10
0.0
 20
0.0
 30
0.0
  3
BLKF0001
  1

  0
LINE
  5
145
330
143
100
AcDbEntity
  8
CSLAYER1
  6
Continuous
 62
     7
100
AcDbLine
 10
92.05515899999999
 20
125.526923
 30
0.0
 11
97.455159
 21
129.127603
 31
0.0
  0
LINE
  5
146
330
143
100
AcDbEntity
  8
CSLAYER1
  6
Continuous
 62
     7
100
AcDbLine
 10
97.455159
 20
129.127603
 30
0.0
 11
102.855159
 21
125.526923
 31
0.0
  0
LINE
  5
147
330
143
100
AcDbEntity
  8
CSLAYER1
  6
Continuous
 62
     7
100
AcDbLine
 10
102.855159
 20
125.526923
 30
0.0
 11
97.455159
 21
121.927603
 31
0.0
  0
LINE
  5
148
330
143
100
AcDbEntity
  8
CSLAYER1
  6
Continuous
 62
     7
100
AcDbLine
 10
97.455159
 20
121.927603
 30
0.0
 11
92.05515899999999
 21
125.526923
 31
0.0
  0
LINE
  5
149
330
143
100
AcDbEntity
  8
CSLAYER1
  6
Continuous
 62
     7
100
AcDbLine
 10
95.43436899999999
 20
123.87423
 30
0.0
 11
95.43436899999999
 21
127.180976
 31
0.0
  0
LINE
  5
14A
330
143
100
AcDbEntity
  8
CSLAYER1
  6
Continuous
 62
     7
100
AcDbLine
 10
97.638867
 20
127.180976
 30
0.0
 11
97.638867
 21
123.87423
 31
0.0
  0
LINE
  5
14B
330
143
100
AcDbEntity
  8
CSLAYER1
  6
Continuous
 62
     7
100
AcDbLine
 10
95.43436899999999
 20
127.180976
 30
0.0
 11
96.53661800000001
 21
125.196928
 31
0.0
  0
LINE
  5
14C
330
143
100
AcDbEntity
  8
CSLAYER1
  6
Continuous
 62
     7
100
AcDbLine
 10
96.53661800000001
 20
125.196928
 30
0.0
 11
97.638867
 21
127.180976
 31
0.0
  0
ARC
  5
14D
330
143
100
AcDbEntity
  8
CSLAYER1
  6
Continuous
 62
     7
100
AcDbCircle
 10
99.175777
 20
126.133955
 30
0.0
 40
1.047021999999999
100
AcDbArc
 50
27.10944699999999
 51
161.524667
  0
ARC
  5
14E
330
143
100
AcDbEntity
  8
CSLAYER1
  6
Continuous
 62
     7
100
AcDbCircle
 10
98.705438
 20
126.291103
 30
0.0
 40
0.5511239999999999
100
AcDbArc
 50
161.524667
 51
247.5
  0
LINE
  5
14F
330
143
100
AcDbEntity
  8
CSLAYER1
  6
Continuous
 62
     7
100
AcDbLine
 10
98.49453199999999
 20
125.78193
 30
0.0
 11
99.83819699999999
 21
125.225366
 31
0.0
  0
ARC
  5
150
330
143
100
AcDbEntity
  8
CSLAYER1
  6
Continuous
 62
     7
100
AcDbCircle
 10
99.627291
 20
124.716193
 30
0.0
 40
0.5511239999999999
100
AcDbArc
 50
335.574526
 51
67.5
  0
ARC
  5
151
330
143
100
AcDbEntity
  8
CSLAYER1
  6
Continuous
 62
     7
100
AcDbCircle
 10
99.175777
 20
124.921251
 30
0.0
 40
1.047021999999999
100
AcDbArc
 50
201.467778
 51
335.574526
  0
ENDBLK
  5
152
330
143
100
AcDbEntity
  8
0
100
AcDbBlockEnd
  0
BLOCK
  5
4BC
330
4BA
100
AcDbEntity
  8
0
100
AcDbBlockBegin
  2
GENAXEH
 70
     0
 10
0.0
 20
0.0
 30
0.0
  3
GENAXEH
  1

  0
LINE
  5
4BB
330
4BA
100
AcDbEntity
  8
0
100
AcDbLine
 10
-1.0
 20
0.0
 30
0.0
 11
1.0
 21
0.0
 31
0.0
  0
ENDBLK
  5
4BD
330
4BA
100
AcDbEntity
  8
0
100
AcDbBlockEnd
  0
BLOCK
  5
4C9
330
4C8
100
AcDbEntity
  8
0
100
AcDbBlockBegin
  2
_ACMFILLEDHALF
 70
     0
 10
0.0
 20
0.0
 30
0.0
  3
_ACMFILLEDHALF
  1

  0
TRACE
  5
4CB
330
4C8
100
AcDbEntity
  8
CSLAYER18
 62
     0
100
AcDbTrace
 10
-0.8
 20
0.0
 30
0.0
 11
-1.0
 21
0.166666666
 31
0.0
 12
0.0
 22
0.0
 32
0.0
 13
0.0
 23
0.0
 33
0.0
  0
LINE
  5
4CC
330
4C8
100
AcDbEntity
  8
CSLAYER18
 62
     0
100
AcDbLine
 10
-1.0
 20
0.0
 30
0.0
 11
-0.8
 21
0.0
 31
0.0
  0
ENDBLK
  5
4CA
330
4C8
100
AcDbEntity
  8
0
100
AcDbBlockEnd
  0
ENDSEC
  0
SECTION
  2
ENTITIES
  0
LINE
  5
153
330
6F
100
AcDbEntity
  8
CSLAYER1
  6
Continuous
 62
     7
100
AcDbLine
 10
10.0
 20
10.0
 30
0.0
 11
287.0
 21
10.0
 31
0.0
  0
LINE
  5
154
330
6F
100
AcDbEntity
  8
CSLAYER1
  6
Continuous
 62
     7
100
AcDbLine
 10
287.0
 20
10.0
 30
0.0
 11
287.0
 21
195.0
 31
0.0
  0
LINE
  5
155
330
6F
100
AcDbEntity
  8
CSLAYER1
  6
Continuous
 62
     7
100
AcDbLine
 10
287.0
 20
195.0
 30
0.0
 11
10.0
 21
195.0
 31
0.0
  0
LINE
  5
156
330
6F
100
AcDbEntity
  8
CSLAYER1
  6
Continuous
 62
     7
100
AcDbLine
 10
10.0
 20
195.0
 30
0.0
 11
10.0
 21
10.0
 31
0.0
  0
LINE
  5
157
330
6F
100
AcDbEntity
  8
CSLAYER1
  6
Continuous
 62
     7
100
AcDbLine
 10
75.87427099999999
 20
42.21079699999999
 30
0.0
 11
75.87427099999999
 21
56.82515699999999
 31
0.0
  0
ARC
  5
158
330
6F
100
AcDbEntity
  8
CSLAYER1
  6
Continuous
 62
     7
100
AcDbCircle
 10
78.274348
 20
56.82515699999999
 30
0.0
 40
2.400077
100
AcDbArc
 50
90.45809499999998
 51
180.0
  0
LINE
  5
159
330
6F
100
AcDbEntity
  8
CSLAYER1
  6
Continuous
 62
     7
100
AcDbLine
 10
78.25515899999999
 20
59.22515699999999
 30
0.0
 11
116.654677
 21
59.22515699999999
 31
0.0
  0
LINE
  5
15A
330
6F
100
AcDbEntity
  8
CSLAYER1
  6
Continuous
 62
     7
100
AcDbLine
 10
116.654677
 20
59.22515699999999
 30
0.0
 11
116.654677
 21
58.63088499999999
 31
0.0
  0
ARC
  5
15B
330
6F
100
AcDbEntity
  8
CSLAYER1
  6
Continuous
 62
     7
100
AcDbCircle
 10
116.635974
 20
56.82515699999999
 30
0.0
 40
2.400072999999999
100
AcDbArc
 50
0.0
 51
89.55350000000001
  0
LINE
  5
15C
330
6F
100
AcDbEntity
  8
CSLAYER1
  6
Continuous
 62
     7
100
AcDbLine
 10
119.036047
 20
56.82515699999999
 30
0.0
 11
119.036047
 21
42.21079699999999
 31
0.0
  0
LINE
  5
15D
330
6F
100
AcDbEntity
  8
CSLAYER1
  6
Continuous
 62
     7
100
AcDbLine
 10
119.036047
 20
42.21079699999999
 30
0.0
 11
116.654677
 21
40.825157
 31
0.0
  0
LINE
  5
15E
330
6F
100
AcDbEntity
  8
CSLAYER1
  6
Continuous
 62
     7
100
AcDbLine
 10
116.654677
 20
40.825157
 30
0.0
 11
78.25515899999999
 21
40.825157
 31
0.0
  0
LINE
  5
15F
330
6F
100
AcDbEntity
  8
CSLAYER1
  6
Continuous
 62
     7
100
AcDbLine
 10
78.25515899999999
 20
40.825157
 30
0.0
 11
75.87427099999999
 21
42.21079699999999
 31
0.0
  0
LINE
  5
160
330
6F
100
AcDbEntity
  8
CSLAYER1
  6
Continuous
 62
     7
100
AcDbLine
 10
77.45625799999999
 20
42.21079699999999
 30
0.0
 11
77.45625799999999
 21
56.82515699999999
 31
0.0
  0
LINE
  5
161
330
6F
100
AcDbEntity
  8
CSLAYER1
  6
Continuous
 62
     7
100
AcDbLine
 10
77.45625799999999
 20
56.82515699999999
 30
0.0
 11
80.65625799999999
 21
56.82515699999999
 31
0.0
  0
LINE
  5
162
330
6F
100
AcDbEntity
  8
CSLAYER1
  6
Continuous
 62
     7
100
AcDbLine
 10
80.65625799999999
 20
56.82515699999999
 30
0.0
 11
80.65625799999999
 21
42.21079699999999
 31
0.0
  0
LINE
  5
163
330
6F
100
AcDbEntity
  8
CSLAYER1
  6
Continuous
 62
     7
100
AcDbLine
 10
80.65625799999999
 20
42.21079699999999
 30
0.0
 11
82.660038
 21
40.825157
 31
0.0
  0
LINE
  5
164
330
6F
100
AcDbEntity
  8
CSLAYER1
  6
Continuous
 62
     7
100
AcDbLine
 10
82.660038
 20
40.825157
 30
0.0
 11
82.660038
 21
59.22515699999999
 31
0.0
  0
ARC
  5
165
330
6F
100
AcDbEntity
  8
CSLAYER1
  6
Continuous
 62
     7
100
AcDbCircle
 10
83.095431
 20
56.82515699999999
 30
0.0
 40
2.439173999999999
100
AcDbArc
 50
100.282431
 51
180.0
  0
ARC
  5
166
330
6F
100
AcDbEntity
  8
CSLAYER1
  6
Continuous
 62
     7
100
AcDbCircle
 10
79.895431
 20
56.82515699999999
 30
0.0
 40
2.439173999999999
100
AcDbArc
 50
100.282431
 51
180.0
  0
LINE
  5
167
330
6F
100
AcDbEntity
  8
CSLAYER1
  6
Continuous
 62
     7
100
AcDbLine
 10
78.25515899999999
 20
58.63044699999999
 30
0.0
 11
78.25515899999999
 21
59.22515699999999
 31
0.0
  0
LINE
  5
168
330
6F
100
AcDbEntity
  8
CSLAYER1
  6
Continuous
 62
     7
100
AcDbLine
 10
82.25515899999999
 20
59.92692299999999
 30
0.0
 11
82.25515899999999
 21
67.126923
 31
0.0
  0
LINE
  5
169
330
6F
100
AcDbEntity
  8
CSLAYER1
  6
Continuous
 62
     7
100
AcDbLine
 10
79.05515900000001
 20
67.126923
 30
0.0
 11
115.855159
 21
67.126923
 31
0.0
  0
ARC
  5
16A
330
6F
100
AcDbEntity
  8
CSLAYER1
  6
Continuous
 62
     7
100
AcDbCircle
 10
115.855159
 20
67.926923
 30
0.0
 40
0.8
100
AcDbArc
 50
270.0
 51
0.0
  0
LINE
  5
16B
330
6F
100
AcDbEntity
  8
CSLAYER1
  6
Continuous
 62
     7
100
AcDbLine
 10
116.655159
 20
67.926923
 30
0.0
 11
116.655159
 21
95.92692300000001
 31
0.0
  0
ARC
  5
16C
330
6F
100
AcDbEntity
  8
CSLAYER1
  6
Continuous
 62
     7
100
AcDbCircle
 10
112.655159
 20
95.92692300000001
 30
0.0
 40
4.0
100
AcDbArc
 50
0.0
 51
90.0
  0
LINE
  5
16D
330
6F
100
AcDbEntity
  8
CSLAYER1
  6
Continuous
 62
     7
100
AcDbLine
 10
112.655159
 20
99.92692300000001
 30
0.0
 11
82.25515899999999
 21
99.92692300000001
 31
0.0
  0
ARC
  5
16E
330
6F
100
AcDbEntity
  8
CSLAYER1
  6
Continuous
 62
     7
100
AcDbCircle
 10
82.25515899999999
 20
95.92692300000001
 30
0.0
 40
4.0
100
AcDbArc
 50
90.0
 51
180.0
  0
LINE
  5
16F
330
6F
100
AcDbEntity
  8
CSLAYER1
  6
Continuous
 62
     7
100
AcDbLine
 10
78.25515899999999
 20
95.92692300000001
 30
0.0
 11
78.25515899999999
 21
93.126923
 31
0.0
  0
ARC
  5
170
330
6F
100
AcDbEntity
  8
CSLAYER1
  6
Continuous
 62
     7
100
AcDbCircle
 10
76.25515899999999
 20
93.126923
 30
0.0
 40
2.0
100
AcDbArc
 50
270.0
 51
0.0
  0
LINE
  5
171
330
6F
100
AcDbEntity
  8
CSLAYER1
  6
Continuous
 62
     7
100
AcDbLine
 10
76.25515899999999
 20
91.126923
 30
0.0
 11
72.25515899999999
 21
91.126923
 31
0.0
  0
ARC
  5
172
330
6F
100
AcDbEntity
  8
CSLAYER1
  6
Continuous
 62
     7
100
AcDbCircle
 10
72.25515899999999
 20
90.72692299999999
 30
0.0
 40
0.4
100
AcDbArc
 50
90.0
 51
180.0
  0
LINE
  5
173
330
6F
100
AcDbEntity
  8
CSLAYER1
  6
Continuous
 62
     7
100
AcDbLine
 10
71.855159
 20
90.72692299999999
 30
0.0
 11
71.855159
 21
80.32692299999999
 31
0.0
  0
ARC
  5
174
330
6F
100
AcDbEntity
  8
CSLAYER1
  6
Continuous
 62
     7
100
AcDbCircle
 10
72.25515899999999
 20
80.32692299999999
 30
0.0
 40
0.4
100
AcDbArc
 50
180.0
 51
270.0
  0
LINE
  5
175
330
6F
100
AcDbEntity
  8
CSLAYER1
  6
Continuous
 62
     7
100
AcDbLine
 10
72.25515899999999
 20
79.926923
 30
0.0
 11
76.25515899999999
 21
79.926923
 31
0.0
  0
ARC
  5
176
330
6F
100
AcDbEntity
  8
CSLAYER1
  6
Continuous
 62
     7
100
AcDbCircle
 10
76.25515899999999
 20
77.926923
 30
0.0
 40
2.0
100
AcDbArc
 50
0.0
 51
90.0
  0
LINE
  5
177
330
6F
100
AcDbEntity
  8
CSLAYER1
  6
Continuous
 62
     7
100
AcDbLine
 10
78.25515899999999
 20
77.926923
 30
0.0
 11
78.25515899999999
 21
67.926923
 31
0.0
  0
ARC
  5
178
330
6F
100
AcDbEntity
  8
CSLAYER1
  6
Continuous
 62
     7
100
AcDbCircle
 10
79.05515900000001
 20
67.926923
 30
0.0
 40
0.8
100
AcDbArc
 50
180.0
 51
270.0
  0
LINE
  5
179
330
6F
100
AcDbEntity
  8
CSLAYER1
  6
Continuous
 62
     7
100
AcDbLine
 10
82.25515899999999
 20
59.92692299999999
 30
0.0
 11
112.655159
 21
59.92692299999999
 31
0.0
  0
LINE
  5
17A
330
6F
100
AcDbEntity
  8
CSLAYER1
  6
Continuous
 62
     7
100
AcDbLine
 10
112.655159
 20
59.92692299999999
 30
0.0
 11
112.655159
 21
67.126923
 31
0.0
  0
ARC
  5
17B
330
6F
100
AcDbEntity
  8
CSLAYER1
  6
Continuous
 62
     7
100
AcDbCircle
 10
112.169667
 20
56.82515699999999
 30
0.0
 40
2.401352999999999
100
AcDbArc
 50
0.0
 51
88.07622399999999
  0
LINE
  5
17C
330
6F
100
AcDbEntity
  8
CSLAYER1
  6
Continuous
 62
     7
100
AcDbLine
 10
114.57102
 20
56.82515699999999
 30
0.0
 11
117.45406
 21
56.82515699999999
 31
0.0
  0
LINE
  5
17D
330
6F
100
AcDbEntity
  8
CSLAYER1
  6
Continuous
 62
     7
100
AcDbLine
 10
117.45406
 20
56.82515699999999
 30
0.0
 11
117.45406
 21
42.21079699999999
 31
0.0
  0
LINE
  5
17E
330
6F
100
AcDbEntity
  8
CSLAYER1
  6
Continuous
 62
     7
100
AcDbLine
 10
117.45406
 20
42.21079699999999
 30
0.0
 11
114.57102
 21
42.21079699999999
 31
0.0
  0
LINE
  5
17F
330
6F
100
AcDbEntity
  8
CSLAYER1
  6
Continuous
 62
     7
100
AcDbLine
 10
114.57102
 20
42.21079699999999
 30
0.0
 11
114.57102
 21
56.82515699999999
 31
0.0
  0
ARC
  5
180
330
6F
100
AcDbEntity
  8
CSLAYER1
  6
Continuous
 62
     7
100
AcDbCircle
 10
115.014886
 20
56.82515699999999
 30
0.0
 40
2.439173999999999
100
AcDbArc
 50
0.0
 51
79.71756899999999
  0
LINE
  5
181
330
6F
100
AcDbEntity
  8
CSLAYER1
  6
Continuous
 62
     7
100
AcDbLine
 10
112.25028
 20
59.22515699999999
 30
0.0
 11
112.25028
 21
40.825157
 31
0.0
  0
LINE
  5
182
330
6F
100
AcDbEntity
  8
CSLAYER1
  6
Continuous
 62
     7
100
AcDbLine
 10
112.25028
 20
40.825157
 30
0.0
 11
114.57102
 21
42.21079699999999
 31
0.0
  0
LINE
  5
183
330
6F
100
AcDbEntity
  8
CSLAYER1
  6
Continuous
 62
     7
100
AcDbLine
 10
115.45028
 20
40.825157
 30
0.0
 11
117.45406
 21
42.21079699999999
 31
0.0
  0
LINE
  5
184
330
6F
100
AcDbEntity
  8
CSLAYER1
  6
Continuous
 62
     7
100
AcDbLine
 10
116.654677
 20
41.658013
 30
0.0
 11
116.654677
 21
40.825157
 31
0.0
  0
LINE
  5
185
330
6F
100
AcDbEntity
  8
CSLAYER1
  6
Continuous
 62
     7
100
AcDbLine
 10
107.673606
 20
42.21079699999999
 30
0.0
 11
107.673606
 21
56.82515699999999
 31
0.0
  0
ARC
  5
186
330
6F
100
AcDbEntity
  8
CSLAYER1
  6
Continuous
 62
     7
100
AcDbCircle
 10
103.394927
 20
56.82515699999999
 30
0.0
 40
4.278679
100
AcDbArc
 50
0.0
 51
34.1195
  0
LINE
  5
187
330
6F
100
AcDbEntity
  8
CSLAYER1
  6
Continuous
 62
     7
100
AcDbLine
 10
108.855159
 20
59.22515699999999
 30
0.0
 11
108.855159
 21
59.92692299999999
 31
0.0
  0
LINE
  5
188
330
6F
100
AcDbEntity
  8
CSLAYER1
  6
Continuous
 62
     7
100
AcDbLine
 10
107.673606
 20
56.82515699999999
 30
0.0
 11
101.63545
 21
56.82515699999999
 31
0.0
  0
LINE
  5
189
330
6F
100
AcDbEntity
  8
CSLAYER1
  6
Continuous
 62
     7
100
AcDbLine
 10
101.63545
 20
56.82515699999999
 30
0.0
 11
101.63545
 21
42.21079699999999
 31
0.0
  0
LINE
  5
18A
330
6F
100
AcDbEntity
  8
CSLAYER1
  6
Continuous
 62
     7
100
AcDbLine
 10
101.63545
 20
42.21079699999999
 30
0.0
 11
107.673606
 21
42.21079699999999
 31
0.0
  0
LINE
  5
18B
330
6F
100
AcDbEntity
  8
CSLAYER1
  6
Continuous
 62
     7
100
AcDbLine
 10
107.673606
 20
42.21079699999999
 30
0.0
 11
106.937114
 21
40.825157
 31
0.0
  0
LINE
  5
18C
330
6F
100
AcDbEntity
  8
CSLAYER1
  6
Continuous
 62
     7
100
AcDbLine
 10
101.63545
 20
42.21079699999999
 30
0.0
 11
100.923082
 21
40.825157
 31
0.0
  0
LINE
  5
18D
330
6F
100
AcDbEntity
  8
CSLAYER1
  6
Continuous
 62
     7
100
AcDbLine
 10
100.923082
 20
40.825157
 30
0.0
 11
100.923082
 21
59.22515699999999
 31
0.0
  0
ARC
  5
18E
330
6F
100
AcDbEntity
  8
CSLAYER1
  6
Continuous
 62
     7
100
AcDbCircle
 10
97.236413
 20
56.82515699999999
 30
0.0
 40
4.399036999999999
100
AcDbArc
 50
0.0
 51
33.063896
  0
LINE
  5
18F
330
6F
100
AcDbEntity
  8
CSLAYER1
  6
Continuous
 62
     7
100
AcDbLine
 10
104.243384
 20
59.92692299999999
 30
0.0
 11
104.243384
 21
67.126923
 31
0.0
  0
LINE
  5
190
330
6F
100
AcDbEntity
  8
CSLAYER1
  6
Continuous
 62
     7
100
AcDbLine
 10
100.655159
 20
67.126923
 30
0.0
 11
100.655159
 21
95.92692300000001
 31
0.0
  0
ARC
  5
191
330
6F
100
AcDbEntity
  8
CSLAYER1
  6
Continuous
 62
     7
100
AcDbCircle
 10
100.255159
 20
95.92692300000001
 30
0.0
 40
0.4
100
AcDbArc
 50
0.0
 51
90.0
  0
LINE
  5
192
330
6F
100
AcDbEntity
  8
CSLAYER1
  6
Continuous
 62
     7
100
AcDbLine
 10
100.255159
 20
96.326923
 30
0.0
 11
94.65515899999999
 21
96.326923
 31
0.0
  0
ARC
  5
193
330
6F
100
AcDbEntity
  8
CSLAYER1
  6
Continuous
 62
     7
100
AcDbCircle
 10
94.65515899999999
 20
95.92692300000001
 30
0.0
 40
0.4
100
AcDbArc
 50
90.0
 51
180.0
  0
LINE
  5
194
330
6F
100
AcDbEntity
  8
CSLAYER1
  6
Continuous
 62
     7
100
AcDbLine
 10
94.25515899999998
 20
95.92692300000001
 30
0.0
 11
94.25515899999998
 21
67.126923
 31
0.0
  0
LINE
  5
195
330
6F
100
AcDbEntity
  8
CSLAYER1
  6
CENTER
 62
     7
100
AcDbLine
 10
97.455159
 20
67.126923
 30
0.0
 11
97.455159
 21
22.215494
 31
0.0
  0
LINE
  5
196
330
6F
100
AcDbEntity
  8
CSLAYER1
  6
Continuous
 62
     7
100
AcDbLine
 10
93.85515899999999
 20
29.286923
 30
0.0
 11
101.055159
 21
29.286923
 31
0.0
  0
LINE
  5
197
330
6F
100
AcDbEntity
  8
CSLAYER1
  6
Continuous
 62
     7
100
AcDbLine
 10
101.055159
 20
29.286923
 30
0.0
 11
101.055159
 21
40.825157
 31
0.0
  0
LINE
  5
198
330
6F
100
AcDbEntity
  8
CSLAYER1
  6
Continuous
 62
     7
100
AcDbLine
 10
93.987236
 20
40.825157
 30
0.0
 11
93.274868
 21
42.21079699999999
 31
0.0
  0
LINE
  5
199
330
6F
100
AcDbEntity
  8
CSLAYER1
  6
Continuous
 62
     7
100
AcDbLine
 10
93.274868
 20
42.21079699999999
 30
0.0
 11
87.236712
 21
42.21079699999999
 31
0.0
  0
LINE
  5
19A
330
6F
100
AcDbEntity
  8
CSLAYER1
  6
Continuous
 62
     7
100
AcDbLine
 10
87.236712
 20
42.21079699999999
 30
0.0
 11
87.236712
 21
56.82515699999999
 31
0.0
  0
LINE
  5
19B
330
6F
100
AcDbEntity
  8
CSLAYER1
  6
Continuous
 62
     7
100
AcDbLine
 10
87.236712
 20
56.82515699999999
 30
0.0
 11
93.274868
 21
56.82515699999999
 31
0.0
  0
LINE
  5
19C
330
6F
100
AcDbEntity
  8
CSLAYER1
  6
Continuous
 62
     7
100
AcDbLine
 10
93.274868
 20
56.82515699999999
 30
0.0
 11
93.274868
 21
42.21079699999999
 31
0.0
  0
LINE
  5
19D
330
6F
100
AcDbEntity
  8
CSLAYER1
  6
Continuous
 62
     7
100
AcDbLine
 10
93.85515899999999
 20
40.825157
 30
0.0
 11
93.85515899999999
 21
29.286923
 31
0.0
  0
LINE
  5
19E
330
6F
100
AcDbEntity
  8
CSLAYER1
  6
Continuous
 62
     7
100
AcDbLine
 10
93.987236
 20
40.825157
 30
0.0
 11
93.987236
 21
59.22515699999999
 31
0.0
  0
ARC
  5
19F
330
6F
100
AcDbEntity
  8
CSLAYER1
  6
Continuous
 62
     7
100
AcDbCircle
 10
97.67390500000001
 20
56.82515699999999
 30
0.0
 40
4.399036999999999
100
AcDbArc
 50
146.936104
 51
180.0
  0
LINE
  5
1A0
330
6F
100
AcDbEntity
  8
CSLAYER1
  6
Continuous
 62
     7
100
AcDbLine
 10
90.666934
 20
59.92692299999999
 30
0.0
 11
90.666934
 21
67.126923
 31
0.0
  0
ARC
  5
1A1
330
6F
100
AcDbEntity
  8
CSLAYER1
  6
Continuous
 62
     7
100
AcDbCircle
 10
91.515391
 20
56.82515699999999
 30
0.0
 40
4.278679
100
AcDbArc
 50
145.8805
 51
180.0
  0
LINE
  5
1A2
330
6F
100
AcDbEntity
  8
CSLAYER1
  6
Continuous
 62
     7
100
AcDbLine
 10
86.055159
 20
59.22515699999999
 30
0.0
 11
86.055159
 21
59.92692299999999
 31
0.0
  0
LINE
  5
1A3
330
6F
100
AcDbEntity
  8
CSLAYER1
  6
Continuous
 62
     7
100
AcDbLine
 10
76.47539300000001
 20
78.52993000000001
 30
0.0
 11
77.877138
 21
80.95782300000001
 31
0.0
  0
ARC
  5
1A4
330
6F
100
AcDbEntity
  8
CSLAYER1
  6
Continuous
 62
     7
100
AcDbCircle
 10
66.93688299999999
 20
85.22466999999998
 30
0.0
 40
12.45965
100
AcDbArc
 50
335.220722
 51
26.17069
  0
LINE
  5
1A5
330
6F
100
AcDbEntity
  8
CSLAYER1
  6
CENTER
 62
     7
100
AcDbLine
 10
74.41556099999999
 20
85.526923
 30
0.0
 11
63.43338000000001
 21
85.526923
 31
0.0
  0
LINE
  5
1A6
330
6F
100
AcDbEntity
  8
CSLAYER1
  6
Continuous
 62
     7
100
AcDbLine
 10
66.33515899999999
 20
85.526923
 30
0.0
 11
69.855159
 21
85.526923
 31
0.0
  0
LINE
  5
1A7
330
6F
100
AcDbEntity
  8
CSLAYER1
  6
Continuous
 62
     7
100
AcDbLine
 10
69.855159
 20
84.92692299999999
 30
0.0
 11
66.33515899999999
 21
84.92692299999999
 31
0.0
  0
LINE
  5
1A8
330
6F
100
AcDbEntity
  8
CSLAYER1
  6
Continuous
 62
     7
100
AcDbLine
 10
66.33515899999999
 20
84.32692299999999
 30
0.0
 11
69.855159
 21
84.32692299999999
 31
0.0
  0
LINE
  5
1A9
330
6F
100
AcDbEntity
  8
CSLAYER1
  6
Continuous
 62
     7
100
AcDbLine
 10
69.855159
 20
83.726923
 30
0.0
 11
66.33515899999999
 21
83.726923
 31
0.0
  0
LINE
  5
1AA
330
6F
100
AcDbEntity
  8
CSLAYER1
  6
Continuous
 62
     7
100
AcDbLine
 10
66.33515899999999
 20
83.126923
 30
0.0
 11
69.855159
 21
83.126923
 31
0.0
  0
LINE
  5
1AB
330
6F
100
AcDbEntity
  8
CSLAYER1
  6
Continuous
 62
     7
100
AcDbLine
 10
69.855159
 20
82.52692299999999
 30
0.0
 11
66.33515899999999
 21
82.52692299999999
 31
0.0
  0
LINE
  5
1AC
330
6F
100
AcDbEntity
  8
CSLAYER1
  6
Continuous
 62
     7
100
AcDbLine
 10
66.33515899999999
 20
81.926923
 30
0.0
 11
69.855159
 21
81.926923
 31
0.0
  0
LINE
  5
1AD
330
6F
100
AcDbEntity
  8
CSLAYER1
  6
Continuous
 62
     7
100
AcDbLine
 10
69.855159
 20
81.326923
 30
0.0
 11
66.33515899999999
 21
81.326923
 31
0.0
  0
LINE
  5
1AE
330
6F
100
AcDbEntity
  8
CSLAYER1
  6
Continuous
 62
     7
100
AcDbLine
 10
66.33515899999999
 20
80.72692299999999
 30
0.0
 11
65.69515899999998
 21
81.36692299999999
 31
0.0
  0
LINE
  5
1AF
330
6F
100
AcDbEntity
  8
CSLAYER1
  6
Continuous
 62
     7
100
AcDbLine
 10
65.69515899999998
 20
81.36692299999999
 30
0.0
 11
65.69515899999998
 21
89.68692299999998
 31
0.0
  0
LINE
  5
1B0
330
6F
100
AcDbEntity
  8
CSLAYER1
  6
Continuous
 62
     7
100
AcDbLine
 10
65.69515899999998
 20
89.68692299999998
 30
0.0
 11
66.33515899999999
 21
90.32692299999999
 31
0.0
  0
LINE
  5
1B1
330
6F
100
AcDbEntity
  8
CSLAYER1
  6
Continuous
 62
     7
100
AcDbLine
 10
66.33515899999999
 20
90.32692299999999
 30
0.0
 11
69.855159
 21
90.32692299999999
 31
0.0
  0
LINE
  5
1B2
330
6F
100
AcDbEntity
  8
CSLAYER1
  6
Continuous
 62
     7
100
AcDbLine
 10
69.855159
 20
90.32692299999999
 30
0.0
 11
70.495159
 21
89.68692299999998
 31
0.0
  0
LINE
  5
1B3
330
6F
100
AcDbEntity
  8
CSLAYER1
  6
Continuous
 62
     7
100
AcDbLine
 10
70.495159
 20
89.68692299999998
 30
0.0
 11
70.495159
 21
81.36692299999999
 31
0.0
  0
LINE
  5
1B4
330
6F
100
AcDbEntity
  8
CSLAYER1
  6
Continuous
 62
     7
100
AcDbLine
 10
70.495159
 20
81.36692299999999
 30
0.0
 11
69.855159
 21
80.72692299999999
 31
0.0
  0
LINE
  5
1B5
330
6F
100
AcDbEntity
  8
CSLAYER1
  6
Continuous
 62
     7
100
AcDbLine
 10
69.855159
 20
80.72692299999999
 30
0.0
 11
66.33515899999999
 21
80.72692299999999
 31
0.0
  0
LINE
  5
1B6
330
6F
100
AcDbEntity
  8
CSLAYER1
  6
Continuous
 62
     7
100
AcDbLine
 10
66.33515899999999
 20
80.72692299999999
 30
0.0
 11
66.33515899999999
 21
90.32692299999999
 31
0.0
  0
LINE
  5
1B7
330
6F
100
AcDbEntity
  8
CSLAYER1
  6
Continuous
 62
     7
100
AcDbLine
 10
66.33515899999999
 20
89.726923
 30
0.0
 11
69.855159
 21
89.726923
 31
0.0
  0
LINE
  5
1B8
330
6F
100
AcDbEntity
  8
CSLAYER1
  6
Continuous
 62
     7
100
AcDbLine
 10
69.855159
 20
90.32692299999999
 30
0.0
 11
69.855159
 21
80.72692299999999
 31
0.0
  0
LINE
  5
1B9
330
6F
100
AcDbEntity
  8
CSLAYER1
  6
Continuous
 62
     7
100
AcDbLine
 10
70.495159
 20
82.566923
 30
0.0
 11
71.855159
 21
82.566923
 31
0.0
  0
LINE
  5
1BA
330
6F
100
AcDbEntity
  8
CSLAYER1
  6
Continuous
 62
     7
100
AcDbLine
 10
69.855159
 20
86.126923
 30
0.0
 11
66.33515899999999
 21
86.126923
 31
0.0
  0
LINE
  5
1BB
330
6F
100
AcDbEntity
  8
CSLAYER1
  6
Continuous
 62
     7
100
AcDbLine
 10
66.33515899999999
 20
86.72692299999999
 30
0.0
 11
69.855159
 21
86.72692299999999
 31
0.0
  0
LINE
  5
1BC
330
6F
100
AcDbEntity
  8
CSLAYER1
  6
Continuous
 62
     7
100
AcDbLine
 10
69.855159
 20
87.326923
 30
0.0
 11
66.33515899999999
 21
87.326923
 31
0.0
  0
LINE
  5
1BD
330
6F
100
AcDbEntity
  8
CSLAYER1
  6
Continuous
 62
     7
100
AcDbLine
 10
66.33515899999999
 20
87.926923
 30
0.0
 11
69.855159
 21
87.926923
 31
0.0
  0
LINE
  5
1BE
330
6F
100
AcDbEntity
  8
CSLAYER1
  6
Continuous
 62
     7
100
AcDbLine
 10
69.855159
 20
88.52692299999999
 30
0.0
 11
66.33515899999999
 21
88.52692299999999
 31
0.0
  0
LINE
  5
1BF
330
6F
100
AcDbEntity
  8
CSLAYER1
  6
Continuous
 62
     7
100
AcDbLine
 10
66.33515899999999
 20
89.12692300000001
 30
0.0
 11
69.855159
 21
89.12692300000001
 31
0.0
  0
LINE
  5
1C0
330
6F
100
AcDbEntity
  8
CSLAYER1
  6
Continuous
 62
     7
100
AcDbLine
 10
70.495159
 20
88.48692300000001
 30
0.0
 11
71.855159
 21
88.48692300000001
 31
0.0
  0
ARC
  5
1C1
330
6F
100
AcDbEntity
  8
CSLAYER1
  6
Continuous
 62
     7
100
AcDbCircle
 10
76.987992
 20
79.39456800000001
 30
0.0
 40
0.8241319999999999
100
AcDbArc
 50
346.934771
 51
139.996941
  0
ARC
  5
1C2
330
6F
100
AcDbEntity
  8
CSLAYER1
  6
Continuous
 62
     7
100
AcDbCircle
 10
83.85515899999999
 20
101.526923
 30
0.0
 40
1.6
100
AcDbArc
 50
270.0
 51
0.0
  0
LINE
  5
1C3
330
6F
100
AcDbEntity
  8
CSLAYER1
  6
Continuous
 62
     7
100
AcDbLine
 10
85.45515899999999
 20
101.526923
 30
0.0
 11
85.45515899999999
 21
134.400261
 31
0.0
  0
ARC
  5
1C4
330
6F
100
AcDbEntity
  8
CSLAYER1
  6
Continuous
 62
     7
100
AcDbCircle
 10
83.05515900000001
 20
134.400261
 30
0.0
 40
2.399999999999999
100
AcDbArc
 50
0.0
 51
33.690068
  0
LINE
  5
1C5
330
6F
100
AcDbEntity
  8
CSLAYER1
  6
Continuous
 62
     7
100
AcDbLine
 10
85.05208000000001
 20
135.731542
 30
0.0
 11
84.25823800000001
 21
136.922304
 31
0.0
  0
ARC
  5
1C6
330
6F
100
AcDbEntity
  8
CSLAYER1
  6
Continuous
 62
     7
100
AcDbCircle
 10
86.25515899999999
 20
138.253585
 30
0.0
 40
2.399999999999999
100
AcDbArc
 50
180.0
 51
213.690068
  0
LINE
  5
1C7
330
6F
100
AcDbEntity
  8
CSLAYER1
  6
Continuous
 62
     7
100
AcDbLine
 10
83.85515899999999
 20
138.253585
 30
0.0
 11
83.85515899999999
 21
144.941282
 31
0.0
  0
ARC
  5
1C8
330
6F
100
AcDbEntity
  8
CSLAYER1
  6
Continuous
 62
     7
100
AcDbCircle
 10
83.05515900000001
 20
144.941282
 30
0.0
 40
0.8
100
AcDbArc
 50
0.0
 51
60.0
  0
ARC
  5
1C9
330
6F
100
AcDbEntity
  8
CSLAYER1
  6
Continuous
 62
     7
100
AcDbCircle
 10
83.85515899999999
 20
146.326923
 30
0.0
 40
0.8
100
AcDbArc
 50
180.0
 51
240.0
  0
LINE
  5
1CA
330
6F
100
AcDbEntity
  8
CSLAYER1
  6
Continuous
 62
     7
100
AcDbLine
 10
83.05515900000001
 20
146.326923
 30
0.0
 11
83.05515900000001
 21
149.526923
 31
0.0
  0
ARC
  5
1CB
330
6F
100
AcDbEntity
  8
CSLAYER1
  6
Continuous
 62
     7
100
AcDbCircle
 10
83.85515899999999
 20
149.526923
 30
0.0
 40
0.8
100
AcDbArc
 50
90.0
 51
180.0
  0
LINE
  5
1CC
330
6F
100
AcDbEntity
  8
CSLAYER1
  6
Continuous
 62
     7
100
AcDbLine
 10
83.85515899999999
 20
150.326923
 30
0.0
 11
111.055159
 21
150.326923
 31
0.0
  0
ARC
  5
1CD
330
6F
100
AcDbEntity
  8
CSLAYER1
  6
Continuous
 62
     7
100
AcDbCircle
 10
111.055159
 20
149.526923
 30
0.0
 40
0.8
100
AcDbArc
 50
0.0
 51
90.0
  0
LINE
  5
1CE
330
6F
100
AcDbEntity
  8
CSLAYER1
  6
Continuous
 62
     7
100
AcDbLine
 10
111.855159
 20
149.526923
 30
0.0
 11
111.855159
 21
146.326923
 31
0.0
  0
ARC
  5
1CF
330
6F
100
AcDbEntity
  8
CSLAYER1
  6
Continuous
 62
     7
100
AcDbCircle
 10
111.055159
 20
146.326923
 30
0.0
 40
0.8
100
AcDbArc
 50
300.0
 51
0.0
  0
ARC
  5
1D0
330
6F
100
AcDbEntity
  8
CSLAYER1
  6
Continuous
 62
     7
100
AcDbCircle
 10
111.855159
 20
144.941282
 30
0.0
 40
0.8
100
AcDbArc
 50
120.0
 51
180.0
  0
LINE
  5
1D1
330
6F
100
AcDbEntity
  8
CSLAYER1
  6
Continuous
 62
     7
100
AcDbLine
 10
111.055159
 20
144.941282
 30
0.0
 11
111.055159
 21
138.253585
 31
0.0
  0
ARC
  5
1D2
330
6F
100
AcDbEntity
  8
CSLAYER1
  6
Continuous
 62
     7
100
AcDbCircle
 10
108.655159
 20
138.253585
 30
0.0
 40
2.399999999999999
100
AcDbArc
 50
326.309932
 51
0.0
  0
LINE
  5
1D3
330
6F
100
AcDbEntity
  8
CSLAYER1
  6
Continuous
 62
     7
100
AcDbLine
 10
110.65208
 20
136.922304
 30
0.0
 11
109.858238
 21
135.731542
 31
0.0
  0
ARC
  5
1D4
330
6F
100
AcDbEntity
  8
CSLAYER1
  6
Continuous
 62
     7
100
AcDbCircle
 10
111.855159
 20
134.400261
 30
0.0
 40
2.399999999999999
100
AcDbArc
 50
146.309932
 51
180.0
  0
LINE
  5
1D5
330
6F
100
AcDbEntity
  8
CSLAYER1
  6
Continuous
 62
     7
100
AcDbLine
 10
109.455159
 20
134.400261
 30
0.0
 11
109.455159
 21
126.126923
 31
0.0
  0
ARC
  5
1D6
330
6F
100
AcDbEntity
  8
CSLAYER1
  6
Continuous
 62
     7
100
AcDbCircle
 10
111.055159
 20
126.126923
 30
0.0
 40
1.6
100
AcDbArc
 50
180.0
 51
270.0
  0
LINE
  5
1D8
330
6F
100
AcDbEntity
  8
CSLAYER17
  6
Continuous
 62
     7
100
AcDbLine
 10
111.055159
 20
124.526923
 30
0.0
 11
126.131398
 21
124.526923
 31
0.0
  0
LINE
  5
1D9
330
6F
100
AcDbEntity
  8
CSLAYER17
  6
Continuous
 62
     7
100
AcDbLine
 10
126.131398
 20
124.526923
 30
0.0
 11
127.055159
 21
122.926923
 31
0.0
  0
LINE
  5
1DA
330
6F
100
AcDbEntity
  8
CSLAYER1
  6
Continuous
 62
     7
100
AcDbLine
 10
127.055159
 20
122.926923
 30
0.0
 11
127.055159
 21
95.92692300000001
 31
0.0
  0
ARC
  5
1DB
330
6F
100
AcDbEntity
  8
CSLAYER17
  6
Continuous
 62
     7
100
AcDbCircle
 10
114.195604
 20
96.126923
 30
0.0
 40
12.859555
100
AcDbArc
 50
0.0
 51
21.849377
  0
LINE
  5
1DC
330
6F
100
AcDbEntity
  8
CSLAYER17
  6
Continuous
 62
     7
100
AcDbLine
 10
126.131398
 20
100.912836
 30
0.0
 11
109.455159
 21
100.912836
 31
0.0
  0
LINE
  5
1DD
330
6F
100
AcDbEntity
  8
CSLAYER17
  6
Continuous
 62
     7
100
AcDbLine
 10
109.455159
 20
100.912836
 30
0.0
 11
109.455159
 21
103.199206
 31
0.0
  0
LINE
  5
1DE
330
6F
100
AcDbEntity
  8
CSLAYER17
  6
Continuous
 62
     7
100
AcDbLine
 10
109.455159
 20
103.199206
 30
0.0
 11
126.131398
 21
103.199206
 31
0.0
  0
LINE
  5
1DF
330
6F
100
AcDbEntity
  8
CSLAYER17
  6
Continuous
 62
     7
100
AcDbLine
 10
126.131398
 20
103.199206
 30
0.0
 11
126.131398
 21
100.912836
 31
0.0
  0
ARC
  5
1E0
330
6F
100
AcDbEntity
  8
CSLAYER17
  6
Continuous
 62
     7
100
AcDbCircle
 10
104.920993
 20
109.526923
 30
0.0
 40
22.134166
100
AcDbArc
 50
343.388539
 51
16.611461
  0
LINE
  5
1E1
330
6F
100
AcDbEntity
  8
CSLAYER17
  6
Continuous
 62
     7
100
AcDbLine
 10
126.131398
 20
115.85464
 30
0.0
 11
109.455159
 21
115.85464
 31
0.0
  0
ARC
  5
1E2
330
6F
100
AcDbEntity
  8
CSLAYER17
  6
Continuous
 62
     7
100
AcDbCircle
 10
132.390306
 20
109.526923
 30
0.0
 40
23.792036
100
AcDbArc
 50
164.576029
 51
195.4239709999999
  0
ARC
  5
1E3
330
6F
100
AcDbEntity
  8
CSLAYER17
  6
Continuous
 62
     7
100
AcDbCircle
 10
122.391904
 20
96.126923
 30
0.0
 40
13.793634
100
AcDbArc
 50
159.698186
 51
162.410267
  0
ARC
  5
1E4
330
6F
100
AcDbEntity
  8
CSLAYER1
  6
Continuous
 62
     7
100
AcDbCircle
 10
108.255159
 20
101.126923
 30
0.0
 40
1.199999999999999
100
AcDbArc
 50
180.0
 51
270.0
  0
LINE
  5
1E5
330
6F
100
AcDbEntity
  8
CSLAYER1
  6
Continuous
 62
     7
100
AcDbLine
 10
107.055159
 20
101.126923
 30
0.0
 11
107.055159
 21
113.926923
 31
0.0
  0
ARC
  5
1E6
330
6F
100
AcDbEntity
  8
CSLAYER1
  6
Continuous
 62
     7
100
AcDbCircle
 10
105.855159
 20
113.926923
 30
0.0
 40
1.199999999999999
100
AcDbArc
 50
0.0
 51
90.0
  0
LINE
  5
1E7
330
6F
100
AcDbEntity
  8
CSLAYER1
  6
Continuous
 62
     7
100
AcDbLine
 10
105.855159
 20
115.126923
 30
0.0
 11
86.655159
 21
115.126923
 31
0.0
  0
ARC
  5
1E8
330
6F
100
AcDbEntity
  8
CSLAYER1
  6
Continuous
 62
     7
100
AcDbCircle
 10
86.655159
 20
113.926923
 30
0.0
 40
1.199999999999999
100
AcDbArc
 50
90.0
 51
180.0
  0
LINE
  5
1E9
330
6F
100
AcDbEntity
  8
CSLAYER1
  6
Continuous
 62
     7
100
AcDbLine
 10
87.855159
 20
110.726923
 30
0.0
 11
87.855159
 21
105.926923
 31
0.0
  0
ARC
  5
1EA
330
6F
100
AcDbEntity
  8
CSLAYER1
  6
Continuous
 62
     7
100
AcDbCircle
 10
89.05515900000001
 20
105.926923
 30
0.0
 40
1.199999999999999
100
AcDbArc
 50
180.0
 51
270.0
  0
LINE
  5
1EB
330
6F
100
AcDbEntity
  8
CSLAYER1
  6
Continuous
 62
     7
100
AcDbLine
 10
89.05515900000001
 20
104.726923
 30
0.0
 11
103.455159
 21
104.726923
 31
0.0
  0
ARC
  5
1EC
330
6F
100
AcDbEntity
  8
CSLAYER1
  6
Continuous
 62
     7
100
AcDbCircle
 10
103.455159
 20
105.926923
 30
0.0
 40
1.199999999999999
100
AcDbArc
 50
270.0
 51
0.0
  0
LINE
  5
1ED
330
6F
100
AcDbEntity
  8
CSLAYER1
  6
Continuous
 62
     7
100
AcDbLine
 10
104.655159
 20
105.926923
 30
0.0
 11
104.655159
 21
110.726923
 31
0.0
  0
ARC
  5
1EE
330
6F
100
AcDbEntity
  8
CSLAYER1
  6
Continuous
 62
     7
100
AcDbCircle
 10
103.455159
 20
110.726923
 30
0.0
 40
1.199999999999999
100
AcDbArc
 50
0.0
 51
90.0
  0
LINE
  5
1EF
330
6F
100
AcDbEntity
  8
CSLAYER1
  6
Continuous
 62
     7
100
AcDbLine
 10
103.455159
 20
111.926923
 30
0.0
 11
89.05515900000001
 21
111.926923
 31
0.0
  0
ARC
  5
1F0
330
6F
100
AcDbEntity
  8
CSLAYER1
  6
Continuous
 62
     7
100
AcDbCircle
 10
89.05515900000001
 20
110.726923
 30
0.0
 40
1.199999999999999
100
AcDbArc
 50
90.0
 51
180.0
  0
LINE
  5
1F1
330
6F
100
AcDbEntity
  8
CSLAYER1
  6
Continuous
 62
     7
100
AcDbLine
 10
89.67658699999999
 20
110.323765
 30
0.0
 11
102.75873
 21
110.323765
 31
0.0
  0
LINE
  5
1F2
330
6F
100
AcDbEntity
  8
CSLAYER1
  6
Continuous
 62
     7
100
AcDbLine
 10
102.75873
 20
110.323765
 30
0.0
 11
102.75873
 21
106.43448
 31
0.0
  0
LINE
  5
1F3
330
6F
100
AcDbEntity
  8
CSLAYER1
  6
Continuous
 62
     7
100
AcDbLine
 10
102.75873
 20
106.43448
 30
0.0
 11
89.67658699999999
 21
106.43448
 31
0.0
  0
LINE
  5
1F4
330
6F
100
AcDbEntity
  8
CSLAYER1
  6
Continuous
 62
     7
100
AcDbLine
 10
89.67658699999999
 20
106.43448
 30
0.0
 11
89.67658699999999
 21
110.323765
 31
0.0
  0
LINE
  5
1F5
330
6F
100
AcDbEntity
  8
CSLAYER1
  6
CENTER
 62
     7
100
AcDbLine
 10
97.455159
 20
121.434383
 30
0.0
 11
97.455159
 21
96.326923
 31
0.0
  0
ARC
  5
1F6
330
6F
100
AcDbEntity
  8
CSLAYER1
  6
Continuous
 62
     7
100
AcDbCircle
 10
118.255159
 20
92.926923
 30
0.0
 40
1.6
100
AcDbArc
 50
90.0
 51
180.0
  0
LINE
  5
1F7
330
6F
100
AcDbEntity
  8
CSLAYER17
  6
Continuous
 62
     7
100
AcDbLine
 10
118.255159
 20
94.526923
 30
0.0
 11
126.131398
 21
94.526923
 31
0.0
  0
LINE
  5
1F8
330
6F
100
AcDbEntity
  8
CSLAYER17
  6
Continuous
 62
     7
100
AcDbLine
 10
126.131398
 20
94.526923
 30
0.0
 11
127.055159
 21
96.126923
 31
0.0
  0
LINE
  5
1F9
330
6F
100
AcDbEntity
  8
CSLAYER1
  6
Continuous
 62
     7
100
AcDbLine
 10
148.03684
 20
56.82515699999999
 30
0.0
 11
148.03684
 21
42.21079699999999
 31
0.0
  0
LINE
  5
1FA
330
6F
100
AcDbEntity
  8
CSLAYER1
  6
Continuous
 62
     7
100
AcDbLine
 10
148.03684
 20
42.21079699999999
 30
0.0
 11
150.43684
 21
40.825157
 31
0.0
  0
LINE
  5
1FB
330
6F
100
AcDbEntity
  8
CSLAYER1
  6
Continuous
 62
     7
100
AcDbLine
 10
150.43684
 20
40.825157
 30
0.0
 11
188.521053
 21
40.825157
 31
0.0
  0
LINE
  5
1FC
330
6F
100
AcDbEntity
  8
CSLAYER1
  6
Continuous
 62
     7
100
AcDbLine
 10
188.521053
 20
40.825157
 30
0.0
 11
190.741461
 21
42.21079699999999
 31
0.0
  0
LINE
  5
1FD
330
6F
100
AcDbEntity
  8
CSLAYER1
  6
Continuous
 62
     7
100
AcDbLine
 10
190.741461
 20
42.21079699999999
 30
0.0
 11
188.426148
 21
42.21079699999999
 31
0.0
  0
LINE
  5
1FE
330
6F
100
AcDbEntity
  8
CSLAYER1
  6
Continuous
 62
     7
100
AcDbLine
 10
188.426148
 20
42.21079699999999
 30
0.0
 11
186.332124
 21
40.825157
 31
0.0
  0
LINE
  5
1FF
330
6F
100
AcDbEntity
  8
CSLAYER1
  6
Continuous
 62
     7
100
AcDbLine
 10
186.332124
 20
40.825157
 30
0.0
 11
186.332124
 21
59.22515699999999
 31
0.0
  0
ARC
  5
200
330
6F
100
AcDbEntity
  8
CSLAYER1
  6
Continuous
 62
     7
100
AcDbCircle
 10
186.003793
 20
56.82515699999999
 30
0.0
 40
2.422353999999999
100
AcDbArc
 50
0.0
 51
82.21004200000001
  0
LINE
  5
201
330
6F
100
AcDbEntity
  8
CSLAYER1
  6
Continuous
 62
     7
100
AcDbLine
 10
188.426148
 20
56.82515699999999
 30
0.0
 11
188.426148
 21
42.21079699999999
 31
0.0
  0
LINE
  5
202
330
6F
100
AcDbEntity
  8
CSLAYER1
  6
Continuous
 62
     7
100
AcDbLine
 10
190.741461
 20
42.21079699999999
 30
0.0
 11
190.741461
 21
56.82515699999999
 31
0.0
  0
ARC
  5
203
330
6F
100
AcDbEntity
  8
CSLAYER1
  6
Continuous
 62
     7
100
AcDbCircle
 10
188.334198
 20
56.82515699999999
 30
0.0
 40
2.407262999999999
100
AcDbArc
 50
0.0
 51
85.54814099999999
  0
LINE
  5
204
330
6F
100
AcDbEntity
  8
CSLAYER1
  6
Continuous
 62
     7
100
AcDbLine
 10
188.521053
 20
59.22515699999999
 30
0.0
 11
150.43684
 21
59.22515699999999
 31
0.0
  0
ARC
  5
205
330
6F
100
AcDbEntity
  8
CSLAYER1
  6
Continuous
 62
     7
100
AcDbCircle
 10
150.43684
 20
56.82515699999999
 30
0.0
 40
2.399999999999999
100
AcDbArc
 50
90.0
 51
180.0
  0
LINE
  5
206
330
6F
100
AcDbEntity
  8
CSLAYER1
  6
Continuous
 62
     7
100
AcDbLine
 10
148.03684
 20
56.82515699999999
 30
0.0
 11
148.381193
 21
56.82515699999999
 31
0.0
  0
LINE
  5
207
330
6F
100
AcDbEntity
  8
CSLAYER1
  6
Continuous
 62
     7
100
AcDbLine
 10
148.381193
 20
56.82515699999999
 30
0.0
 11
148.381193
 21
42.21079699999999
 31
0.0
  0
LINE
  5
208
330
6F
100
AcDbEntity
  8
CSLAYER1
  6
Continuous
 62
     7
100
AcDbLine
 10
148.381193
 20
42.21079699999999
 30
0.0
 11
150.705384
 21
40.825157
 31
0.0
  0
LINE
  5
209
330
6F
100
AcDbEntity
  8
CSLAYER1
  6
Continuous
 62
     7
100
AcDbLine
 10
151.339161
 20
42.21079699999999
 30
0.0
 11
151.339161
 21
56.82515699999999
 31
0.0
  0
ARC
  5
20A
330
6F
100
AcDbEntity
  8
CSLAYER1
  6
Continuous
 62
     7
100
AcDbCircle
 10
153.865047
 20
56.82515699999999
 30
0.0
 40
2.525885999999999
100
AcDbArc
 50
108.165181
 51
180.0
  0
LINE
  5
20B
330
6F
100
AcDbEntity
  8
CSLAYER1
  6
Continuous
 62
     7
100
AcDbLine
 10
154.43684
 20
59.92692299999999
 30
0.0
 11
154.43684
 21
67.126923
 31
0.0
  0
LINE
  5
20C
330
6F
100
AcDbEntity
  8
CSLAYER1
  6
Continuous
 62
     7
100
AcDbLine
 10
151.23684
 20
67.126923
 30
0.0
 11
188.03684
 21
67.126923
 31
0.0
  0
ARC
  5
20D
330
6F
100
AcDbEntity
  8
CSLAYER1
  6
Continuous
 62
     7
100
AcDbCircle
 10
188.03684
 20
67.926923
 30
0.0
 40
0.8
100
AcDbArc
 50
270.0
 51
0.0
  0
LINE
  5
20E
330
6F
100
AcDbEntity
  8
CSLAYER1
  6
Continuous
 62
     7
100
AcDbLine
 10
188.83684
 20
67.926923
 30
0.0
 11
188.83684
 21
95.92692300000001
 31
0.0
  0
ARC
  5
20F
330
6F
100
AcDbEntity
  8
CSLAYER1
  6
Continuous
 62
     7
100
AcDbCircle
 10
184.83684
 20
95.92692300000001
 30
0.0
 40
4.0
100
AcDbArc
 50
0.0
 51
90.0
  0
LINE
  5
210
330
6F
100
AcDbEntity
  8
CSLAYER1
  6
Continuous
 62
     7
100
AcDbLine
 10
184.83684
 20
99.92692300000001
 30
0.0
 11
180.209152
 21
99.92692300000001
 31
0.0
  0
ARC
  5
211
330
6F
100
AcDbEntity
  8
CSLAYER17
  6
Continuous
 62
     7
100
AcDbCircle
 10
182.83684
 20
101.126923
 30
0.0
 40
1.199999999999999
100
AcDbArc
 50
196.770948
 51
270.0
  0
ARC
  5
212
330
6F
100
AcDbEntity
  8
CSLAYER17
  6
Continuous
 62
     7
100
AcDbCircle
 10
169.63684
 20
109.526923
 30
0.0
 40
15.0
100
AcDbArc
 50
324.878479
 51
335.048699
  0
LINE
  5
213
330
6F
100
AcDbEntity
  8
CSLAYER17
  6
Continuous
 62
     7
100
AcDbLine
 10
183.23684
 20
103.199206
 30
0.0
 11
183.23684
 21
115.85464
 31
0.0
  0
ARC
  5
214
330
6F
100
AcDbEntity
  8
CSLAYER17
  6
Continuous
 62
     7
100
AcDbCircle
 10
169.63684
 20
109.526923
 30
0.0
 40
15.0
100
AcDbArc
 50
24.878479
 51
35.048699
  0
LINE
  5
215
330
6F
100
AcDbEntity
  8
CSLAYER17
  6
Continuous
 62
     7
100
AcDbLine
 10
181.916803
 20
118.14101
 30
0.0
 11
170.956876
 21
124.468727
 31
0.0
  0
ARC
  5
216
330
6F
100
AcDbEntity
  8
CSLAYER17
  6
Continuous
 62
     7
100
AcDbCircle
 10
169.63684
 20
109.526923
 30
0.0
 40
15.0
100
AcDbArc
 50
84.878479
 51
95.048699
  0
LINE
  5
217
330
6F
100
AcDbEntity
  8
CSLAYER17
  6
Continuous
 62
     7
100
AcDbLine
 10
168.316803
 20
124.468727
 30
0.0
 11
157.356876
 21
118.14101
 31
0.0
  0
ARC
  5
218
330
6F
100
AcDbEntity
  8
CSLAYER17
  6
Continuous
 62
     7
100
AcDbCircle
 10
169.63684
 20
109.526923
 30
0.0
 40
15.0
100
AcDbArc
 50
144.878479
 51
155.048699
  0
LINE
  5
219
330
6F
100
AcDbEntity
  8
CSLAYER17
  6
Continuous
 62
     7
100
AcDbLine
 10
156.0368399999999
 20
115.85464
 30
0.0
 11
156.0368399999999
 21
103.199206
 31
0.0
  0
ARC
  5
21A
330
6F
100
AcDbEntity
  8
CSLAYER17
  6
Continuous
 62
     7
100
AcDbCircle
 10
169.63684
 20
109.526923
 30
0.0
 40
15.0
100
AcDbArc
 50
204.878479
 51
215.048699
  0
LINE
  5
21B
330
6F
100
AcDbEntity
  8
CSLAYER17
  6
Continuous
 62
     7
100
AcDbLine
 10
157.356876
 20
100.912836
 30
0.0
 11
168.316803
 21
94.58511899999999
 31
0.0
  0
ARC
  5
21C
330
6F
100
AcDbEntity
  8
CSLAYER17
  6
Continuous
 62
     7
100
AcDbCircle
 10
169.63684
 20
109.526923
 30
0.0
 40
15.0
100
AcDbArc
 50
264.878479
 51
275.048699
  0
LINE
  5
21D
330
6F
100
AcDbEntity
  8
CSLAYER17
  6
Continuous
 62
     7
100
AcDbLine
 10
170.956876
 20
94.58511899999999
 30
0.0
 11
181.916803
 21
100.912836
 31
0.0
  0
LINE
  5
21E
330
6F
100
AcDbEntity
  8
CSLAYER1
  6
Continuous
 62
     7
100
AcDbLine
 10
159.064527
 20
99.92692300000001
 30
0.0
 11
154.43684
 21
99.92692300000001
 31
0.0
  0
ARC
  5
21F
330
6F
100
AcDbEntity
  8
CSLAYER1
  6
Continuous
 62
     7
100
AcDbCircle
 10
154.43684
 20
95.92692300000001
 30
0.0
 40
4.0
100
AcDbArc
 50
90.0
 51
180.0
  0
LINE
  5
220
330
6F
100
AcDbEntity
  8
CSLAYER1
  6
Continuous
 62
     7
100
AcDbLine
 10
150.43684
 20
95.92692300000001
 30
0.0
 11
150.43684
 21
67.926923
 31
0.0
  0
ARC
  5
221
330
6F
100
AcDbEntity
  8
CSLAYER1
  6
Continuous
 62
     7
100
AcDbCircle
 10
151.23684
 20
67.926923
 30
0.0
 40
0.8
100
AcDbArc
 50
180.0
 51
270.0
  0
LINE
  5
222
330
6F
100
AcDbEntity
  8
CSLAYER1
  6
Continuous
 62
     7
100
AcDbLine
 10
154.43684
 20
59.92692299999999
 30
0.0
 11
184.83684
 21
59.92692299999999
 31
0.0
  0
LINE
  5
223
330
6F
100
AcDbEntity
  8
CSLAYER1
  6
Continuous
 62
     7
100
AcDbLine
 10
184.83684
 20
59.92692299999999
 30
0.0
 11
184.83684
 21
67.126923
 31
0.0
  0
LINE
  5
224
330
6F
100
AcDbEntity
  8
CSLAYER1
  6
Continuous
 62
     7
100
AcDbLine
 10
181.0368399999999
 20
59.92692299999999
 30
0.0
 11
181.0368399999999
 21
59.22515699999999
 31
0.0
  0
ARC
  5
225
330
6F
100
AcDbEntity
  8
CSLAYER1
  6
Continuous
 62
     7
100
AcDbCircle
 10
179.791219
 20
56.82515699999999
 30
0.0
 40
3.177632
100
AcDbArc
 50
0.0
 51
49.049789
  0
LINE
  5
226
330
6F
100
AcDbEntity
  8
CSLAYER1
  6
Continuous
 62
     7
100
AcDbLine
 10
182.968851
 20
56.82515699999999
 30
0.0
 11
177.372699
 21
56.82515699999999
 31
0.0
  0
LINE
  5
227
330
6F
100
AcDbEntity
  8
CSLAYER1
  6
Continuous
 62
     7
100
AcDbLine
 10
177.372699
 20
56.82515699999999
 30
0.0
 11
177.372699
 21
42.21079699999999
 31
0.0
  0
LINE
  5
228
330
6F
100
AcDbEntity
  8
CSLAYER1
  6
Continuous
 62
     7
100
AcDbLine
 10
177.372699
 20
42.21079699999999
 30
0.0
 11
182.968851
 21
42.21079699999999
 31
0.0
  0
LINE
  5
229
330
6F
100
AcDbEntity
  8
CSLAYER1
  6
Continuous
 62
     7
100
AcDbLine
 10
182.968851
 20
42.21079699999999
 30
0.0
 11
181.873848
 21
40.825157
 31
0.0
  0
LINE
  5
22A
330
6F
100
AcDbEntity
  8
CSLAYER1
  6
Continuous
 62
     7
100
AcDbLine
 10
182.968851
 20
42.21079699999999
 30
0.0
 11
182.968851
 21
56.82515699999999
 31
0.0
  0
LINE
  5
22B
330
6F
100
AcDbEntity
  8
CSLAYER1
  6
Continuous
 62
     7
100
AcDbLine
 10
188.426148
 20
56.82515699999999
 30
0.0
 11
190.741461
 21
56.82515699999999
 31
0.0
  0
ARC
  5
22C
330
6F
100
AcDbEntity
  8
CSLAYER1
  6
Continuous
 62
     7
100
AcDbCircle
 10
174.086518
 20
56.82515699999999
 30
0.0
 40
3.28618
100
AcDbArc
 50
0.0
 51
46.914164
  0
LINE
  5
22D
330
6F
100
AcDbEntity
  8
CSLAYER1
  6
Continuous
 62
     7
100
AcDbLine
 10
176.331286
 20
59.22515699999999
 30
0.0
 11
176.331286
 21
40.825157
 31
0.0
  0
LINE
  5
22E
330
6F
100
AcDbEntity
  8
CSLAYER1
  6
Continuous
 62
     7
100
AcDbLine
 10
176.331286
 20
40.825157
 30
0.0
 11
177.372699
 21
42.21079699999999
 31
0.0
  0
LINE
  5
22F
330
6F
100
AcDbEntity
  8
CSLAYER1
  6
Continuous
 62
     7
100
AcDbLine
 10
173.23684
 20
40.825157
 30
0.0
 11
173.23684
 21
29.286923
 31
0.0
  0
LINE
  5
230
330
6F
100
AcDbEntity
  8
CSLAYER1
  6
Continuous
 62
     7
100
AcDbLine
 10
173.23684
 20
29.286923
 30
0.0
 11
166.03684
 21
29.286923
 31
0.0
  0
LINE
  5
231
330
6F
100
AcDbEntity
  8
CSLAYER1
  6
Continuous
 62
     7
100
AcDbLine
 10
166.03684
 20
29.286923
 30
0.0
 11
166.03684
 21
40.825157
 31
0.0
  0
LINE
  5
232
330
6F
100
AcDbEntity
  8
CSLAYER1
  6
Continuous
 62
     7
100
AcDbLine
 10
163.198042
 20
40.825157
 30
0.0
 11
162.830286
 21
42.21079699999999
 31
0.0
  0
LINE
  5
233
330
6F
100
AcDbEntity
  8
CSLAYER1
  6
Continuous
 62
     7
100
AcDbLine
 10
162.830286
 20
42.21079699999999
 30
0.0
 11
162.830286
 21
56.82515699999999
 31
0.0
  0
LINE
  5
234
330
6F
100
AcDbEntity
  8
CSLAYER1
  6
Continuous
 62
     7
100
AcDbLine
 10
162.830286
 20
56.82515699999999
 30
0.0
 11
169.139133
 21
56.82515699999999
 31
0.0
  0
LINE
  5
235
330
6F
100
AcDbEntity
  8
CSLAYER1
  6
Continuous
 62
     7
100
AcDbLine
 10
169.139133
 20
56.82515699999999
 30
0.0
 11
169.139133
 21
42.21079699999999
 31
0.0
  0
LINE
  5
236
330
6F
100
AcDbEntity
  8
CSLAYER1
  6
Continuous
 62
     7
100
AcDbLine
 10
169.139133
 20
42.21079699999999
 30
0.0
 11
162.830286
 21
42.21079699999999
 31
0.0
  0
LINE
  5
237
330
6F
100
AcDbEntity
  8
CSLAYER1
  6
Continuous
 62
     7
100
AcDbLine
 10
157.191424
 20
40.825157
 30
0.0
 11
157.191424
 21
59.22515699999999
 31
0.0
  0
ARC
  5
238
330
6F
100
AcDbEntity
  8
CSLAYER1
  6
Continuous
 62
     7
100
AcDbCircle
 10
157.819626
 20
56.82515699999999
 30
0.0
 40
2.480853999999999
100
AcDbArc
 50
104.668147
 51
180.0
  0
LINE
  5
239
330
6F
100
AcDbEntity
  8
CSLAYER1
  6
Continuous
 62
     7
100
AcDbLine
 10
155.338772
 20
56.82515699999999
 30
0.0
 11
155.338772
 21
42.21079699999999
 31
0.0
  0
LINE
  5
23A
330
6F
100
AcDbEntity
  8
CSLAYER1
  6
Continuous
 62
     7
100
AcDbLine
 10
155.338772
 20
42.21079699999999
 30
0.0
 11
157.191424
 21
40.825157
 31
0.0
  0
LINE
  5
23B
330
6F
100
AcDbEntity
  8
CSLAYER1
  6
Continuous
 62
     7
100
AcDbLine
 10
155.338772
 20
42.21079699999999
 30
0.0
 11
151.339161
 21
42.21079699999999
 31
0.0
  0
LINE
  5
23C
330
6F
100
AcDbEntity
  8
CSLAYER1
  6
Continuous
 62
     7
100
AcDbLine
 10
151.339161
 20
42.21079699999999
 30
0.0
 11
153.077583
 21
40.825157
 31
0.0
  0
LINE
  5
23D
330
6F
100
AcDbEntity
  8
CSLAYER1
  6
Continuous
 62
     7
100
AcDbLine
 10
169.139133
 20
42.21079699999999
 30
0.0
 11
169.500812
 21
40.825157
 31
0.0
  0
LINE
  5
23E
330
6F
100
AcDbEntity
  8
CSLAYER1
  6
Continuous
 62
     7
100
AcDbLine
 10
169.500812
 20
40.825157
 30
0.0
 11
169.500812
 21
59.22515699999999
 31
0.0
  0
ARC
  5
23F
330
6F
100
AcDbEntity
  8
CSLAYER1
  6
Continuous
 62
     7
100
AcDbCircle
 10
177.282837
 20
56.82515699999999
 30
0.0
 40
8.143705
100
AcDbArc
 50
162.860081
 51
180.0
  0
ARC
  5
240
330
6F
100
AcDbEntity
  8
CSLAYER1
  6
Continuous
 62
     7
100
AcDbCircle
 10
170.845449
 20
56.82515699999999
 30
0.0
 40
8.015162
100
AcDbArc
 50
162.57648
 51
180.0
  0
LINE
  5
241
330
6F
100
AcDbEntity
  8
CSLAYER1
  6
Continuous
 62
     7
100
AcDbLine
 10
162.848614
 20
59.92692299999999
 30
0.0
 11
162.848614
 21
67.126923
 31
0.0
  0
LINE
  5
242
330
6F
100
AcDbEntity
  8
CSLAYER1
  6
Continuous
 62
     7
100
AcDbLine
 10
158.23684
 20
59.92692299999999
 30
0.0
 11
158.23684
 21
59.22515699999999
 31
0.0
  0
LINE
  5
243
330
6F
100
AcDbEntity
  8
CSLAYER1
  6
Continuous
 62
     7
100
AcDbLine
 10
155.338772
 20
56.82515699999999
 30
0.0
 11
151.339161
 21
56.82515699999999
 31
0.0
  0
ARC
  5
244
330
6F
100
AcDbEntity
  8
CSLAYER1
  6
Continuous
 62
     7
100
AcDbCircle
 10
150.78243
 20
56.82515699999999
 30
0.0
 40
2.401235999999999
100
AcDbArc
 50
91.83869600000001
 51
180.0
  0
LINE
  5
245
330
6F
100
AcDbEntity
  8
CSLAYER1
  6
Continuous
 62
     7
100
AcDbLine
 10
148.381193
 20
42.21079699999999
 30
0.0
 11
148.03684
 21
42.21079699999999
 31
0.0
  0
LINE
  5
246
330
6F
100
AcDbEntity
  8
CSLAYER1
  6
Continuous
 62
     7
100
AcDbLine
 10
87.973203
 20
40.825157
 30
0.0
 11
87.236712
 21
42.21079699999999
 31
0.0
  0
LINE
  5
247
330
6F
100
AcDbEntity
  8
CSLAYER1
  6
Continuous
 62
     7
100
AcDbLine
 10
80.65625799999999
 20
42.21079699999999
 30
0.0
 11
77.45625799999999
 21
42.21079699999999
 31
0.0
  0
LINE
  5
248
330
6F
100
AcDbEntity
  8
CSLAYER1
  6
Continuous
 62
     7
100
AcDbLine
 10
77.45625799999999
 20
42.21079699999999
 30
0.0
 11
79.46003799999999
 21
40.825157
 31
0.0
  0
LINE
  5
249
330
6F
100
AcDbEntity
  8
CSLAYER1
  6
Continuous
 62
     7
100
AcDbLine
 10
78.25515899999999
 20
40.825157
 30
0.0
 11
78.25515899999999
 21
41.658347
 31
0.0
  0
LINE
  5
24A
330
6F
100
AcDbEntity
  8
CSLAYER1
  6
CENTER
 62
     7
100
AcDbLine
 10
169.63684
 20
22.215494
 30
0.0
 11
169.63684
 21
172.456776
 31
0.0
  0
LINE
  5
24B
330
6F
100
AcDbEntity
  8
CSLAYER1
  6
Continuous
 62
     7
100
AcDbLine
 10
167.926908
 20
164.455995
 30
0.0
 11
171.346771
 21
164.455995
 31
0.0
  0
ARC
  5
24C
330
6F
100
AcDbEntity
  8
CSLAYER1
  6
Continuous
 62
     7
100
AcDbCircle
 10
171.346771
 20
162.855995
 30
0.0
 40
1.6
100
AcDbArc
 50
3.0
 51
90.0
  0
LINE
  5
24D
330
6F
100
AcDbEntity
  8
CSLAYER1
  6
Continuous
 62
     7
100
AcDbLine
 10
172.944578
 20
162.939732
 30
0.0
 11
173.196709
 21
158.128792
 31
0.0
  0
ARC
  5
24E
330
6F
100
AcDbEntity
  8
CSLAYER1
  6
Continuous
 62
     7
100
AcDbCircle
 10
172.397805
 20
158.086923
 30
0.0
 40
0.8
100
AcDbArc
 50
270.0
 51
3.0
  0
LINE
  5
24F
330
6F
100
AcDbEntity
  8
CSLAYER1
  6
Continuous
 62
     7
100
AcDbLine
 10
172.397805
 20
157.286923
 30
0.0
 11
166.875874
 21
157.286923
 31
0.0
  0
ARC
  5
250
330
6F
100
AcDbEntity
  8
CSLAYER1
  6
Continuous
 62
     7
100
AcDbCircle
 10
166.875874
 20
158.086923
 30
0.0
 40
0.8
100
AcDbArc
 50
177.0
 51
270.0
  0
LINE
  5
251
330
6F
100
AcDbEntity
  8
CSLAYER1
  6
Continuous
 62
     7
100
AcDbLine
 10
166.07697
 20
158.128792
 30
0.0
 11
166.329101
 21
162.939732
 31
0.0
  0
ARC
  5
252
330
6F
100
AcDbEntity
  8
CSLAYER1
  6
Continuous
 62
     7
100
AcDbCircle
 10
167.926908
 20
162.855995
 30
0.0
 40
1.6
100
AcDbArc
 50
90.0
 51
177.0
  0
ARC
  5
253
330
6F
100
AcDbEntity
  8
CSLAYER1
  6
Continuous
 62
     7
100
AcDbCircle
 10
160.343985
 20
158.590872
 30
0.0
 40
7.398255999999999
100
AcDbArc
 50
36.002623
 51
153.09978
  0
LINE
  5
254
330
6F
100
AcDbEntity
  8
CSLAYER1
  6
Continuous
 62
     7
100
AcDbLine
 10
153.746251
 20
161.938125
 30
0.0
 11
153.419781
 21
158.020487
 31
0.0
  0
ARC
  5
255
330
6F
100
AcDbEntity
  8
CSLAYER1
  6
Continuous
 62
     7
100
AcDbCircle
 10
152.622545
 20
158.086923
 30
0.0
 40
0.8
100
AcDbArc
 50
270.0
 51
355.236358
  0
LINE
  5
256
330
6F
100
AcDbEntity
  8
CSLAYER1
  6
Continuous
 62
     7
100
AcDbLine
 10
153.322244
 20
157.286923
 30
0.0
 11
149.624296
 21
157.286923
 31
0.0
  0
ARC
  5
257
330
6F
100
AcDbEntity
  8
CSLAYER1
  6
Continuous
 62
     7
100
AcDbCircle
 10
149.519645
 20
158.086923
 30
0.0
 40
0.8
100
AcDbArc
 50
175.236358
 51
270.0
  0
LINE
  5
258
330
6F
100
AcDbEntity
  8
CSLAYER1
  6
Continuous
 62
     7
100
AcDbLine
 10
148.722408
 20
158.153359
 30
0.0
 11
149.111214
 21
162.81903
 31
0.0
  0
ARC
  5
259
330
6F
100
AcDbEntity
  8
CSLAYER1
  6
Continuous
 62
     7
100
AcDbCircle
 10
154.293252
 20
162.387194
 30
0.0
 40
5.2
100
AcDbArc
 50
156.222739
 51
175.236358
  0
ARC
  5
25A
330
6F
100
AcDbEntity
  8
CSLAYER1
  6
Continuous
 62
     7
100
AcDbCircle
 10
147.15211
 20
164.608585
 30
0.0
 40
2.385788
100
AcDbArc
 50
357.000445
 51
127.875425
  0
ARC
  5
25B
330
6F
100
AcDbEntity
  8
CSLAYER1
  6
Continuous
 62
     7
100
AcDbCircle
 10
148.879886
 20
162.387194
 30
0.0
 40
5.2
100
AcDbArc
 50
98.972627
 51
175.236358
  0
LINE
  5
25C
330
6F
100
AcDbEntity
  8
CSLAYER1
  6
Continuous
 62
     7
100
AcDbLine
 10
143.697848
 20
162.81903
 30
0.0
 11
143.327093
 21
158.369968
 31
0.0
  0
ARC
  5
25D
330
6F
100
AcDbEntity
  8
CSLAYER1
  6
Continuous
 62
     7
100
AcDbCircle
 10
144.323639
 20
158.286923
 30
0.0
 40
1.0
100
AcDbArc
 50
175.236358
 51
304.561474
  0
LINE
  5
25E
330
6F
100
AcDbEntity
  8
CSLAYER1
  6
Continuous
 62
     7
100
AcDbLine
 10
145.593885
 20
157.354409
 30
0.0
 11
143.158599
 21
157.354409
 31
0.0
  0
LINE
  5
25F
330
6F
100
AcDbEntity
  8
CSLAYER1
  6
Continuous
 62
     7
100
AcDbLine
 10
123.933399
 20
157.354409
 30
0.0
 11
121.498113
 21
157.354409
 31
0.0
  0
ARC
  5
260
330
6F
100
AcDbEntity
  8
CSLAYER1
  6
Continuous
 62
     7
100
AcDbCircle
 10
122.768359
 20
158.286923
 30
0.0
 40
1.0
100
AcDbArc
 50
248.830103
 51
4.763641999999999
  0
LINE
  5
261
330
6F
100
AcDbEntity
  8
CSLAYER1
  6
Continuous
 62
     7
100
AcDbLine
 10
123.764905
 20
158.369968
 30
0.0
 11
123.39415
 21
162.81903
 31
0.0
  0
ARC
  5
262
330
6F
100
AcDbEntity
  8
CSLAYER1
  6
Continuous
 62
     7
100
AcDbCircle
 10
118.212112
 20
162.387194
 30
0.0
 40
5.2
100
AcDbArc
 50
4.763641999999999
 51
81.02737299999999
  0
LINE
  5
263
330
6F
100
AcDbEntity
  8
CSLAYER1
  6
Continuous
 62
     7
100
AcDbLine
 10
119.023117
 20
167.523561
 30
0.0
 11
109.567063
 21
169.016622
 31
0.0
  0
LINE
  5
264
330
6F
100
AcDbEntity
  8
CSLAYER1
  6
Continuous
 62
     7
100
AcDbLine
 10
109.567063
 20
169.016622
 30
0.0
 11
85.34325499999999
 21
169.016622
 31
0.0
  0
LINE
  5
265
330
6F
100
AcDbEntity
  8
CSLAYER1
  6
Continuous
 62
     7
100
AcDbLine
 10
85.34325499999999
 20
169.016622
 30
0.0
 11
75.88720000000001
 21
167.523561
 31
0.0
  0
ARC
  5
266
330
6F
100
AcDbEntity
  8
CSLAYER1
  6
Continuous
 62
     7
100
AcDbCircle
 10
76.698206
 20
162.387194
 30
0.0
 40
5.2
100
AcDbArc
 50
98.972627
 51
175.236358
  0
LINE
  5
267
330
6F
100
AcDbEntity
  8
CSLAYER1
  6
Continuous
 62
     7
100
AcDbLine
 10
71.51616800000001
 20
162.81903
 30
0.0
 11
71.145413
 21
158.369968
 31
0.0
  0
ARC
  5
268
330
6F
100
AcDbEntity
  8
CSLAYER1
  6
Continuous
 62
     7
100
AcDbCircle
 10
72.141958
 20
158.286923
 30
0.0
 40
1.0
100
AcDbArc
 50
175.236358
 51
304.561474
  0
LINE
  5
269
330
6F
100
AcDbEntity
  8
CSLAYER1
  6
Continuous
 62
     7
100
AcDbLine
 10
73.412205
 20
157.354409
 30
0.0
 11
70.97691800000001
 21
157.354409
 31
0.0
  0
LINE
  5
26A
330
6F
100
AcDbEntity
  8
CSLAYER1
  6
Continuous
 62
     7
100
AcDbLine
 10
76.540728
 20
158.153359
 30
0.0
 11
76.92953399999999
 21
162.81903
 31
0.0
  0
ARC
  5
26B
330
6F
100
AcDbEntity
  8
CSLAYER1
  6
Continuous
 62
     7
100
AcDbCircle
 10
82.111572
 20
162.387194
 30
0.0
 40
5.2
100
AcDbArc
 50
156.222739
 51
175.236358
  0
ARC
  5
26C
330
6F
100
AcDbEntity
  8
CSLAYER1
  6
Continuous
 62
     7
100
AcDbCircle
 10
74.97043000000001
 20
164.608585
 30
0.0
 40
2.385788
100
AcDbArc
 50
357.000445
 51
127.875425
  0
ARC
  5
26D
330
6F
100
AcDbEntity
  8
CSLAYER1
  6
Continuous
 62
     7
100
AcDbCircle
 10
79.24779599999999
 20
162.13119
 30
0.0
 40
2.324805
100
AcDbArc
 50
355.236358
 51
185.10831
  0
ARC
  5
26E
330
6F
100
AcDbEntity
  8
CSLAYER1
  6
Continuous
 62
     7
100
AcDbCircle
 10
88.162304
 20
158.590872
 30
0.0
 40
7.398255999999999
100
AcDbArc
 50
36.002623
 51
153.09978
  0
LINE
  5
26F
330
6F
100
AcDbEntity
  8
CSLAYER1
  6
Continuous
 62
     7
100
AcDbLine
 10
94.14742
 20
162.939732
 30
0.0
 11
93.895289
 21
158.128792
 31
0.0
  0
ARC
  5
270
330
6F
100
AcDbEntity
  8
CSLAYER1
  6
Continuous
 62
     7
100
AcDbCircle
 10
94.694193
 20
158.086923
 30
0.0
 40
0.8
100
AcDbArc
 50
177.0
 51
270.0
  0
LINE
  5
271
330
6F
100
AcDbEntity
  8
CSLAYER1
  6
Continuous
 62
     7
100
AcDbLine
 10
94.694193
 20
157.286923
 30
0.0
 11
100.216125
 21
157.286923
 31
0.0
  0
ARC
  5
272
330
6F
100
AcDbEntity
  8
CSLAYER1
  6
Continuous
 62
     7
100
AcDbCircle
 10
100.216125
 20
158.086923
 30
0.0
 40
0.8
100
AcDbArc
 50
270.0
 51
3.0
  0
LINE
  5
273
330
6F
100
AcDbEntity
  8
CSLAYER1
  6
Continuous
 62
     7
100
AcDbLine
 10
101.015028
 20
158.128792
 30
0.0
 11
100.762898
 21
162.939732
 31
0.0
  0
ARC
  5
274
330
6F
100
AcDbEntity
  8
CSLAYER1
  6
Continuous
 62
     7
100
AcDbCircle
 10
106.748014
 20
158.590872
 30
0.0
 40
7.398255999999999
100
AcDbArc
 50
26.90022
 51
143.997377
  0
LINE
  5
275
330
6F
100
AcDbEntity
  8
CSLAYER1
  6
Continuous
 62
     7
100
AcDbLine
 10
113.345747
 20
161.938125
 30
0.0
 11
113.672217
 21
158.020487
 31
0.0
  0
ARC
  5
276
330
6F
100
AcDbEntity
  8
CSLAYER1
  6
Continuous
 62
     7
100
AcDbCircle
 10
114.469454
 20
158.086923
 30
0.0
 40
0.8
100
AcDbArc
 50
184.7636419999999
 51
270.0
  0
ARC
  5
277
330
6F
100
AcDbEntity
  8
CSLAYER1
  6
Continuous
 62
     7
100
AcDbCircle
 10
107.084267
 20
140.846709
 30
0.0
 40
17.747574
100
AcDbArc
 50
67.87066
 51
112.54528
  0
LINE
  5
278
330
6F
100
AcDbEntity
  8
CSLAYER1
  6
Continuous
 62
     7
100
AcDbLine
 10
101.815159
 20
156.486923
 30
0.0
 11
101.815159
 21
155.926923
 31
0.0
  0
ARC
  5
279
330
6F
100
AcDbEntity
  8
CSLAYER1
  6
Continuous
 62
     7
100
AcDbCircle
 10
106.81285
 20
150.416522
 30
0.0
 40
5.510400999999999
100
AcDbArc
 50
90.0
 51
124.514925
  0
LINE
  5
27A
330
6F
100
AcDbEntity
  8
CSLAYER1
  6
Continuous
 62
     7
100
AcDbLine
 10
108.255159
 20
155.926923
 30
0.0
 11
86.655159
 21
155.926923
 31
0.0
  0
LINE
  5
27B
330
6F
100
AcDbEntity
  8
CSLAYER1
  6
Continuous
 62
     7
100
AcDbLine
 10
86.655159
 20
155.926923
 30
0.0
 11
84.97515899999999
 21
154.956975
 31
0.0
  0
LINE
  5
27C
330
6F
100
AcDbEntity
  8
CSLAYER1
  6
Continuous
 62
     7
100
AcDbLine
 10
84.97515899999999
 20
154.956975
 30
0.0
 11
84.97515899999999
 21
151.126923
 31
0.0
  0
LINE
  5
27D
330
6F
100
AcDbEntity
  8
CSLAYER1
  6
Continuous
 62
     7
100
AcDbLine
 10
84.97515899999999
 20
151.126923
 30
0.0
 11
109.935159
 21
151.126923
 31
0.0
  0
LINE
  5
27E
330
6F
100
AcDbEntity
  8
CSLAYER1
  6
Continuous
 62
     7
100
AcDbLine
 10
109.935159
 20
151.126923
 30
0.0
 11
109.935159
 21
154.956975
 31
0.0
  0
LINE
  5
27F
330
6F
100
AcDbEntity
  8
CSLAYER1
  6
Continuous
 62
     7
100
AcDbLine
 10
109.935159
 20
154.956975
 30
0.0
 11
108.255159
 21
155.926923
 31
0.0
  0
ARC
  5
280
330
6F
100
AcDbEntity
  8
CSLAYER1
  6
Continuous
 62
     7
100
AcDbCircle
 10
105.131169
 20
157.286923
 30
0.0
 40
0.8
100
AcDbArc
 50
270.0
 51
354.289407
  0
LINE
  5
281
330
6F
100
AcDbEntity
  8
CSLAYER1
  6
Continuous
 62
     7
100
AcDbLine
 10
105.131169
 20
156.486923
 30
0.0
 11
89.779149
 21
156.486923
 31
0.0
  0
ARC
  5
282
330
6F
100
AcDbEntity
  8
CSLAYER1
  6
Continuous
 62
     7
100
AcDbCircle
 10
89.779149
 20
157.286923
 30
0.0
 40
0.8
100
AcDbArc
 50
185.710593
 51
270.0
  0
LINE
  5
283
330
6F
100
AcDbEntity
  8
CSLAYER1
  6
Continuous
 62
     7
100
AcDbLine
 10
88.98311899999999
 20
157.20732
 30
0.0
 11
88.84736399999999
 21
158.564872
 31
0.0
  0
ARC
  5
284
330
6F
100
AcDbEntity
  8
CSLAYER1
  6
Continuous
 62
     7
100
AcDbCircle
 10
95.74522700000001
 20
162.855995
 30
0.0
 40
1.6
100
AcDbArc
 50
90.0
 51
177.0
  0
LINE
  5
285
330
6F
100
AcDbEntity
  8
CSLAYER1
  6
Continuous
 62
     7
100
AcDbLine
 10
95.74522700000001
 20
164.455995
 30
0.0
 11
99.165091
 21
164.455995
 31
0.0
  0
ARC
  5
286
330
6F
100
AcDbEntity
  8
CSLAYER1
  6
Continuous
 62
     7
100
AcDbCircle
 10
99.165091
 20
162.855995
 30
0.0
 40
1.6
100
AcDbArc
 50
3.0
 51
90.0
  0
LINE
  5
287
330
6F
100
AcDbEntity
  8
CSLAYER1
  6
Continuous
 62
     7
100
AcDbLine
 10
106.062954
 20
158.564872
 30
0.0
 11
105.927199
 21
157.20732
 31
0.0
  0
LINE
  5
288
330
6F
100
AcDbEntity
  8
CSLAYER1
  6
Continuous
 62
     7
100
AcDbLine
 10
103.690542
 20
154.956975
 30
0.0
 11
103.690542
 21
151.126923
 31
0.0
  0
LINE
  5
289
330
6F
100
AcDbEntity
  8
CSLAYER1
  6
Continuous
 62
     7
100
AcDbLine
 10
107.215159
 20
151.126923
 30
0.0
 11
107.215159
 21
150.326923
 31
0.0
  0
LINE
  5
28A
330
6F
100
AcDbEntity
  8
CSLAYER1
  6
Continuous
 62
     7
100
AcDbLine
 10
110.330462
 20
145.689709
 30
0.0
 11
84.42781999999999
 21
145.689709
 31
0.0
  0
LINE
  5
28B
330
6F
100
AcDbEntity
  8
CSLAYER1
  6
Continuous
 62
     7
100
AcDbLine
 10
87.695159
 20
150.326923
 30
0.0
 11
87.695159
 21
151.126923
 31
0.0
  0
LINE
  5
28C
330
6F
100
AcDbEntity
  8
CSLAYER1
  6
Continuous
 62
     7
100
AcDbLine
 10
91.21977599999999
 20
151.126923
 30
0.0
 11
91.21977599999999
 21
154.956975
 31
0.0
  0
ARC
  5
28D
330
6F
100
AcDbEntity
  8
CSLAYER1
  6
Continuous
 62
     7
100
AcDbCircle
 10
88.09746700000001
 20
150.416522
 30
0.0
 40
5.510400999999999
100
AcDbArc
 50
55.48507500000001
 51
90.0
  0
ARC
  5
28E
330
6F
100
AcDbEntity
  8
CSLAYER1
  6
Continuous
 62
     7
100
AcDbCircle
 10
97.455159
 20
135.399647
 30
0.0
 40
20.527276
100
AcDbArc
 50
72.31637099999999
 51
107.683629
  0
ARC
  5
28F
330
6F
100
AcDbEntity
  8
CSLAYER1
  6
Continuous
 62
     7
100
AcDbCircle
 10
87.82605100000001
 20
140.846709
 30
0.0
 40
17.747574
100
AcDbArc
 50
67.45471999999999
 51
112.12934
  0
LINE
  5
290
330
6F
100
AcDbEntity
  8
CSLAYER1
  6
Continuous
 62
     7
100
AcDbLine
 10
81.140564
 20
157.286923
 30
0.0
 11
77.442615
 21
157.286923
 31
0.0
  0
ARC
  5
291
330
6F
100
AcDbEntity
  8
CSLAYER1
  6
Continuous
 62
     7
100
AcDbCircle
 10
77.337964
 20
158.086923
 30
0.0
 40
0.8
100
AcDbArc
 50
175.236358
 51
270.0
  0
ARC
  5
292
330
6F
100
AcDbEntity
  8
CSLAYER1
  6
Continuous
 62
     7
100
AcDbCircle
 10
80.44086400000001
 20
158.086923
 30
0.0
 40
0.8
100
AcDbArc
 50
270.0
 51
355.236358
  0
LINE
  5
293
330
6F
100
AcDbEntity
  8
CSLAYER1
  6
Continuous
 62
     7
100
AcDbLine
 10
93.09515899999999
 20
156.486923
 30
0.0
 11
93.09515899999999
 21
155.926923
 31
0.0
  0
LINE
  5
294
330
6F
100
AcDbEntity
  8
CSLAYER1
  6
Continuous
 62
     7
100
AcDbLine
 10
85.011212
 20
137.872244
 30
0.0
 11
109.863748
 21
137.872244
 31
0.0
  0
LINE
  5
295
330
6F
100
AcDbEntity
  8
CSLAYER1
  6
Continuous
 62
     7
100
AcDbLine
 10
108.580284
 20
135.188637
 30
0.0
 11
86.06132
 21
135.188637
 31
0.0
  0
LINE
  5
296
330
6F
100
AcDbEntity
  8
CSLAYER1
  6
CENTER
 62
     7
100
AcDbLine
 10
97.455159
 20
129.798462
 30
0.0
 11
97.455159
 21
172.456776
 31
0.0
  0
LINE
  5
297
330
6F
100
AcDbEntity
  8
CSLAYER1
  6
Continuous
 62
     7
100
AcDbLine
 10
81.56456999999999
 20
161.938125
 30
0.0
 11
81.238101
 21
158.020487
 31
0.0
  0
ARC
  5
298
330
6F
100
AcDbEntity
  8
CSLAYER1
  6
Continuous
 62
     7
100
AcDbCircle
 10
115.662522
 20
162.13119
 30
0.0
 40
2.324805
100
AcDbArc
 50
7.303244
 51
184.7636419999999
  0
LINE
  5
299
330
6F
100
AcDbEntity
  8
CSLAYER1
  6
Continuous
 62
     7
100
AcDbLine
 10
117.980784
 20
162.81903
 30
0.0
 11
118.36959
 21
158.153359
 31
0.0
  0
ARC
  5
29A
330
6F
100
AcDbEntity
  8
CSLAYER1
  6
Continuous
 62
     7
100
AcDbCircle
 10
117.572353
 20
158.086923
 30
0.0
 40
0.8
100
AcDbArc
 50
270.0
 51
4.763641999999999
  0
LINE
  5
29B
330
6F
100
AcDbEntity
  8
CSLAYER1
  6
Continuous
 62
     7
100
AcDbLine
 10
117.572353
 20
157.286923
 30
0.0
 11
113.769754
 21
157.286923
 31
0.0
  0
ARC
  5
29C
330
6F
100
AcDbEntity
  8
CSLAYER17
  6
Continuous
 62
     7
100
AcDbCircle
 10
97.455159
 20
133.390909
 30
0.0
 40
14.863986
100
AcDbArc
 50
298.594633
 51
317.325264
  0
LINE
  5
29D
330
6F
100
AcDbEntity
  8
CSLAYER17
  6
Continuous
 62
     7
100
AcDbLine
 10
103.758506
 20
118.963906
 30
0.0
 11
103.758506
 21
116.412675
 31
0.0
  0
LINE
  5
29E
330
6F
100
AcDbEntity
  8
CSLAYER17
  6
Continuous
 62
     7
100
AcDbLine
 10
109.455159
 20
115.85464
 30
0.0
 11
109.455159
 21
118.14101
 31
0.0
  0
LINE
  5
29F
330
6F
100
AcDbEntity
  8
CSLAYER17
  6
Continuous
 62
     7
100
AcDbLine
 10
109.455159
 20
118.14101
 30
0.0
 11
126.131398
 21
118.14101
 31
0.0
  0
LINE
  5
2A0
330
6F
100
AcDbEntity
  8
CSLAYER17
  6
Continuous
 62
     7
100
AcDbLine
 10
126.131398
 20
118.14101
 30
0.0
 11
126.131398
 21
115.85464
 31
0.0
  0
ARC
  5
2A1
330
6F
100
AcDbEntity
  8
CSLAYER17
  6
Continuous
 62
     7
100
AcDbCircle
 10
114.195604
 20
122.926923
 30
0.0
 40
12.859555
100
AcDbArc
 50
338.150623
 51
0.0
  0
LINE
  5
2A2
330
6F
100
AcDbEntity
  8
CSLAYER1
  6
CENTER
 62
     7
100
AcDbLine
 10
129.813258
 20
109.526923
 30
0.0
 11
110.520728
 21
109.526923
 31
0.0
  0
ARC
  5
2A3
330
6F
100
AcDbEntity
  8
CSLAYER17
  6
Continuous
 62
     7
100
AcDbCircle
 10
122.391904
 20
122.926923
 30
0.0
 40
13.793634
100
AcDbArc
 50
186.348262
 51
200.301814
  0
ARC
  5
2A4
330
6F
100
AcDbEntity
  8
CSLAYER1
  6
Continuous
 62
     7
100
AcDbCircle
 10
112.798746
 20
162.387194
 30
0.0
 40
5.2
100
AcDbArc
 50
4.763641999999999
 51
23.777261
  0
ARC
  5
2A5
330
6F
100
AcDbEntity
  8
CSLAYER1
  6
Continuous
 62
     7
100
AcDbCircle
 10
119.939888
 20
164.608585
 30
0.0
 40
2.385788
100
AcDbArc
 50
52.124575
 51
182.999555
  0
LINE
  5
2A6
330
6F
100
AcDbEntity
  8
CSLAYER1
  6
Continuous
 62
     7
100
AcDbLine
 10
148.068881
 20
167.523561
 30
0.0
 11
157.524936
 21
169.016622
 31
0.0
  0
LINE
  5
2A7
330
6F
100
AcDbEntity
  8
CSLAYER1
  6
Continuous
 62
     7
100
AcDbLine
 10
157.524936
 20
169.016622
 30
0.0
 11
181.748743
 21
169.016622
 31
0.0
  0
LINE
  5
2A8
330
6F
100
AcDbEntity
  8
CSLAYER1
  6
Continuous
 62
     7
100
AcDbLine
 10
181.748743
 20
169.016622
 30
0.0
 11
191.204798
 21
167.523561
 31
0.0
  0
ARC
  5
2A9
330
6F
100
AcDbEntity
  8
CSLAYER1
  6
Continuous
 62
     7
100
AcDbCircle
 10
190.393793
 20
162.387194
 30
0.0
 40
5.2
100
AcDbArc
 50
4.763641999999999
 51
81.02737299999999
  0
LINE
  5
2AA
330
6F
100
AcDbEntity
  8
CSLAYER1
  6
Continuous
 62
     7
100
AcDbLine
 10
195.575831
 20
162.81903
 30
0.0
 11
195.946586
 21
158.369968
 31
0.0
  0
ARC
  5
2AB
330
6F
100
AcDbEntity
  8
CSLAYER1
  6
Continuous
 62
     7
100
AcDbCircle
 10
194.95004
 20
158.286923
 30
0.0
 40
1.0
100
AcDbArc
 50
248.830103
 51
4.763641999999999
  0
LINE
  5
2AC
330
6F
100
AcDbEntity
  8
CSLAYER1
  6
Continuous
 62
     7
100
AcDbLine
 10
193.679794
 20
157.354409
 30
0.0
 11
196.11508
 21
157.354409
 31
0.0
  0
LINE
  5
2AD
330
6F
100
AcDbEntity
  8
CSLAYER1
  6
Continuous
 62
     7
100
AcDbLine
 10
189.754034
 20
157.286923
 30
0.0
 11
185.951435
 21
157.286923
 31
0.0
  0
ARC
  5
2AE
330
6F
100
AcDbEntity
  8
CSLAYER1
  6
Continuous
 62
     7
100
AcDbCircle
 10
179.265947
 20
140.846709
 30
0.0
 40
17.747574
100
AcDbArc
 50
67.87066
 51
112.54528
  0
LINE
  5
2AF
330
6F
100
AcDbEntity
  8
CSLAYER1
  6
Continuous
 62
     7
100
AcDbLine
 10
173.99684
 20
156.486923
 30
0.0
 11
173.99684
 21
155.926923
 31
0.0
  0
LINE
  5
2B0
330
6F
100
AcDbEntity
  8
CSLAYER1
  6
Continuous
 62
     7
100
AcDbLine
 10
177.312849
 20
156.486923
 30
0.0
 11
161.96083
 21
156.486923
 31
0.0
  0
ARC
  5
2B1
330
6F
100
AcDbEntity
  8
CSLAYER1
  6
Continuous
 62
     7
100
AcDbCircle
 10
161.96083
 20
157.286923
 30
0.0
 40
0.8
100
AcDbArc
 50
185.710593
 51
270.0
  0
LINE
  5
2B2
330
6F
100
AcDbEntity
  8
CSLAYER1
  6
Continuous
 62
     7
100
AcDbLine
 10
161.1648
 20
157.20732
 30
0.0
 11
161.029045
 21
158.564872
 31
0.0
  0
ARC
  5
2B3
330
6F
100
AcDbEntity
  8
CSLAYER1
  6
Continuous
 62
     7
100
AcDbCircle
 10
151.429477
 20
162.13119
 30
0.0
 40
2.324805
100
AcDbArc
 50
355.236358
 51
185.10831
  0
ARC
  5
2B4
330
6F
100
AcDbEntity
  8
CSLAYER1
  6
Continuous
 62
     7
100
AcDbCircle
 10
178.929694
 20
158.590872
 30
0.0
 40
7.398255999999999
100
AcDbArc
 50
26.90022
 51
143.997377
  0
LINE
  5
2B5
330
6F
100
AcDbEntity
  8
CSLAYER1
  6
Continuous
 62
     7
100
AcDbLine
 10
185.527428
 20
161.938125
 30
0.0
 11
185.853898
 21
158.020487
 31
0.0
  0
ARC
  5
2B6
330
6F
100
AcDbEntity
  8
CSLAYER1
  6
Continuous
 62
     7
100
AcDbCircle
 10
186.651134
 20
158.086923
 30
0.0
 40
0.8
100
AcDbArc
 50
184.7636419999999
 51
270.0
  0
ARC
  5
2B7
330
6F
100
AcDbEntity
  8
CSLAYER1
  6
Continuous
 62
     7
100
AcDbCircle
 10
189.754034
 20
158.086923
 30
0.0
 40
0.8
100
AcDbArc
 50
270.0
 51
4.763641999999999
  0
LINE
  5
2B8
330
6F
100
AcDbEntity
  8
CSLAYER1
  6
Continuous
 62
     7
100
AcDbLine
 10
190.551271
 20
158.153359
 30
0.0
 11
190.162465
 21
162.81903
 31
0.0
  0
ARC
  5
2B9
330
6F
100
AcDbEntity
  8
CSLAYER1
  6
Continuous
 62
     7
100
AcDbCircle
 10
184.980427
 20
162.387194
 30
0.0
 40
5.2
100
AcDbArc
 50
4.763641999999999
 51
23.777261
  0
ARC
  5
2BA
330
6F
100
AcDbEntity
  8
CSLAYER1
  6
Continuous
 62
     7
100
AcDbCircle
 10
192.121569
 20
164.608585
 30
0.0
 40
2.385788
100
AcDbArc
 50
52.124575
 51
182.999555
  0
ARC
  5
2BB
330
6F
100
AcDbEntity
  8
CSLAYER1
  6
Continuous
 62
     7
100
AcDbCircle
 10
187.844202
 20
162.13119
 30
0.0
 40
2.324805
100
AcDbArc
 50
7.303244
 51
184.7636419999999
  0
LINE
  5
2BC
330
6F
100
AcDbEntity
  8
CSLAYER1
  6
Continuous
 62
     7
100
AcDbLine
 10
178.244634
 20
158.564872
 30
0.0
 11
178.108879
 21
157.20732
 31
0.0
  0
ARC
  5
2BD
330
6F
100
AcDbEntity
  8
CSLAYER1
  6
Continuous
 62
     7
100
AcDbCircle
 10
177.312849
 20
157.286923
 30
0.0
 40
0.8
100
AcDbArc
 50
270.0
 51
354.289407
  0
LINE
  5
2BE
330
6F
100
AcDbEntity
  8
CSLAYER17
  6
Continuous
 62
     7
100
AcDbLine
 10
180.43684
 20
155.926923
 30
0.0
 11
158.83684
 21
155.926923
 31
0.0
  0
LINE
  5
2BF
330
6F
100
AcDbEntity
  8
CSLAYER17
  6
Continuous
 62
     7
100
AcDbLine
 10
158.83684
 20
155.926923
 30
0.0
 11
158.83684
 21
151.126923
 31
0.0
  0
LINE
  5
2C0
330
6F
100
AcDbEntity
  8
CSLAYER1
  6
Continuous
 62
     7
100
AcDbLine
 10
159.87684
 20
151.126923
 30
0.0
 11
159.87684
 21
150.326923
 31
0.0
  0
LINE
  5
2C1
330
6F
100
AcDbEntity
  8
CSLAYER1
  6
Continuous
 62
     7
100
AcDbLine
 10
157.15684
 20
151.126923
 30
0.0
 11
182.11684
 21
151.126923
 31
0.0
  0
LINE
  5
2C2
330
6F
100
AcDbEntity
  8
CSLAYER1
  6
Continuous
 62
     7
100
AcDbLine
 10
183.23684
 20
150.326923
 30
0.0
 11
156.0368399999999
 21
150.326923
 31
0.0
  0
ARC
  5
2C3
330
6F
100
AcDbEntity
  8
CSLAYER1
  6
Continuous
 62
     7
100
AcDbCircle
 10
156.0368399999999
 20
149.526923
 30
0.0
 40
0.8
100
AcDbArc
 50
90.0
 51
180.0
  0
LINE
  5
2C4
330
6F
100
AcDbEntity
  8
CSLAYER1
  6
Continuous
 62
     7
100
AcDbLine
 10
155.23684
 20
149.526923
 30
0.0
 11
155.23684
 21
146.326923
 31
0.0
  0
ARC
  5
2C5
330
6F
100
AcDbEntity
  8
CSLAYER1
  6
Continuous
 62
     7
100
AcDbCircle
 10
156.0368399999999
 20
146.326923
 30
0.0
 40
0.8
100
AcDbArc
 50
180.0
 51
240.0
  0
ARC
  5
2C6
330
6F
100
AcDbEntity
  8
CSLAYER1
  6
Continuous
 62
     7
100
AcDbCircle
 10
155.23684
 20
144.941282
 30
0.0
 40
0.8
100
AcDbArc
 50
0.0
 51
60.0
  0
LINE
  5
2C7
330
6F
100
AcDbEntity
  8
CSLAYER1
  6
Continuous
 62
     7
100
AcDbLine
 10
156.0368399999999
 20
144.941282
 30
0.0
 11
156.0368399999999
 21
138.253585
 31
0.0
  0
ARC
  5
2C8
330
6F
100
AcDbEntity
  8
CSLAYER1
  6
Continuous
 62
     7
100
AcDbCircle
 10
158.43684
 20
138.253585
 30
0.0
 40
2.399999999999999
100
AcDbArc
 50
180.0
 51
213.690068
  0
LINE
  5
2C9
330
6F
100
AcDbEntity
  8
CSLAYER1
  6
Continuous
 62
     7
100
AcDbLine
 10
156.439919
 20
136.922304
 30
0.0
 11
157.23376
 21
135.731542
 31
0.0
  0
ARC
  5
2CA
330
6F
100
AcDbEntity
  8
CSLAYER1
  6
Continuous
 62
     7
100
AcDbCircle
 10
155.23684
 20
134.400261
 30
0.0
 40
2.399999999999999
100
AcDbArc
 50
0.0
 51
33.690068
  0
LINE
  5
2CB
330
6F
100
AcDbEntity
  8
CSLAYER1
  6
Continuous
 62
     7
100
AcDbLine
 10
157.6368399999999
 20
134.400261
 30
0.0
 11
157.6368399999999
 21
118.302647
 31
0.0
  0
LINE
  5
2CC
330
6F
100
AcDbEntity
  8
CSLAYER17
  6
CENTER
 62
     7
100
AcDbLine
 10
150.938121
 20
109.526923
 30
0.0
 11
187.035225
 21
109.526923
 31
0.0
  0
LINE
  5
2CD
330
6F
100
AcDbEntity
  8
CSLAYER1
  6
Continuous
 62
     7
100
AcDbLine
 10
181.6368399999999
 20
118.302647
 30
0.0
 11
181.6368399999999
 21
134.400261
 31
0.0
  0
ARC
  5
2CE
330
6F
100
AcDbEntity
  8
CSLAYER1
  6
Continuous
 62
     7
100
AcDbCircle
 10
184.03684
 20
134.400261
 30
0.0
 40
2.399999999999999
100
AcDbArc
 50
146.309932
 51
180.0
  0
LINE
  5
2CF
330
6F
100
AcDbEntity
  8
CSLAYER1
  6
Continuous
 62
     7
100
AcDbLine
 10
182.039919
 20
135.731542
 30
0.0
 11
182.83376
 21
136.922304
 31
0.0
  0
ARC
  5
2D0
330
6F
100
AcDbEntity
  8
CSLAYER1
  6
Continuous
 62
     7
100
AcDbCircle
 10
180.83684
 20
138.253585
 30
0.0
 40
2.399999999999999
100
AcDbArc
 50
326.309932
 51
0.0
  0
LINE
  5
2D1
330
6F
100
AcDbEntity
  8
CSLAYER1
  6
Continuous
 62
     7
100
AcDbLine
 10
183.23684
 20
138.253585
 30
0.0
 11
183.23684
 21
144.941282
 31
0.0
  0
ARC
  5
2D2
330
6F
100
AcDbEntity
  8
CSLAYER1
  6
Continuous
 62
     7
100
AcDbCircle
 10
184.03684
 20
144.941282
 30
0.0
 40
0.8
100
AcDbArc
 50
120.0
 51
180.0
  0
ARC
  5
2D3
330
6F
100
AcDbEntity
  8
CSLAYER1
  6
Continuous
 62
     7
100
AcDbCircle
 10
183.23684
 20
146.326923
 30
0.0
 40
0.8
100
AcDbArc
 50
300.0
 51
0.0
  0
LINE
  5
2D4
330
6F
100
AcDbEntity
  8
CSLAYER1
  6
Continuous
 62
     7
100
AcDbLine
 10
184.03684
 20
146.326923
 30
0.0
 11
184.03684
 21
149.526923
 31
0.0
  0
ARC
  5
2D5
330
6F
100
AcDbEntity
  8
CSLAYER1
  6
Continuous
 62
     7
100
AcDbCircle
 10
183.23684
 20
149.526923
 30
0.0
 40
0.8
100
AcDbArc
 50
0.0
 51
90.0
  0
LINE
  5
2D6
330
6F
100
AcDbEntity
  8
CSLAYER17
  6
Continuous
 62
     7
100
AcDbLine
 10
180.43684
 20
151.126923
 30
0.0
 11
180.43684
 21
155.926923
 31
0.0
  0
ARC
  5
2D7
330
6F
100
AcDbEntity
  8
CSLAYER17
  6
Continuous
 62
     7
100
AcDbCircle
 10
180.43684
 20
95.315042
 30
0.0
 40
60.611881
100
AcDbArc
 50
90.0
 51
100.263936
  0
LINE
  5
2D8
330
6F
100
AcDbEntity
  8
CSLAYER17
  6
Continuous
 62
     7
100
AcDbLine
 10
169.63684
 20
154.956975
 30
0.0
 11
169.63684
 21
151.126923
 31
0.0
  0
ARC
  5
2D9
330
6F
100
AcDbEntity
  8
CSLAYER17
  6
Continuous
 62
     7
100
AcDbCircle
 10
158.83684
 20
95.315042
 30
0.0
 40
60.611881
100
AcDbArc
 50
79.736064
 51
90.0
  0
ARC
  5
2DA
330
6F
100
AcDbEntity
  8
CSLAYER1
  6
Continuous
 62
     7
100
AcDbCircle
 10
160.007732
 20
140.846709
 30
0.0
 40
17.747574
100
AcDbArc
 50
67.45471999999999
 51
112.12934
  0
LINE
  5
2DB
330
6F
100
AcDbEntity
  8
CSLAYER1
  6
Continuous
 62
     7
100
AcDbLine
 10
165.27684
 20
156.486923
 30
0.0
 11
165.27684
 21
155.926923
 31
0.0
  0
LINE
  5
2DC
330
6F
100
AcDbEntity
  8
CSLAYER1
  6
Continuous
 62
     7
100
AcDbLine
 10
156.6095
 20
145.689709
 30
0.0
 11
182.512143
 21
145.689709
 31
0.0
  0
LINE
  5
2DD
330
6F
100
AcDbEntity
  8
CSLAYER1
  6
Continuous
 62
     7
100
AcDbLine
 10
179.39684
 20
150.326923
 30
0.0
 11
179.39684
 21
151.126923
 31
0.0
  0
LINE
  5
2DE
330
6F
100
AcDbEntity
  8
CSLAYER1
  6
Continuous
 62
     7
100
AcDbLine
 10
182.045429
 20
137.872244
 30
0.0
 11
157.192893
 21
137.872244
 31
0.0
  0
LINE
  5
2DF
330
6F
100
AcDbEntity
  8
CSLAYER1
  6
Continuous
 62
     7
100
AcDbLine
 10
158.243
 20
135.188637
 30
0.0
 11
180.761965
 21
135.188637
 31
0.0
  0
ARC
  5
2E0
330
6F
100
AcDbEntity
  8
CSLAYER17
  6
Continuous
 62
     7
100
AcDbCircle
 10
156.43684
 20
101.126923
 30
0.0
 40
1.199999999999999
100
AcDbArc
 50
270.0
 51
343.229052
  0
LINE
  5
2E1
330
6F
100
AcDbEntity
  8
CSLAYER1
  6
Continuous
 62
     7
100
AcDbLine
 10
176.425065
 20
67.126923
 30
0.0
 11
176.425065
 21
59.92692299999999
 31
0.0
  0
LINE
  5
2E2
330
6F
100
AcDbEntity
  8
CSLAYER1
  6
Continuous
 62
     7
100
AcDbLine
 10
227.0
 20
158.0
 30
0.0
 11
287.0
 21
158.0
 31
0.0
  0
LINE
  5
2E3
330
6F
100
AcDbEntity
  8
CSLAYER1
  6
Continuous
 62
     7
100
AcDbLine
 10
287.0
 20
164.0
 30
0.0
 11
287.0
 21
195.0
 31
0.0
  0
LINE
  5
2E4
330
6F
100
AcDbEntity
  8
CSLAYER1
  6
Continuous
 62
     7
100
AcDbLine
 10
287.0
 20
195.0
 30
0.0
 11
227.0
 21
195.0
 31
0.0
  0
LINE
  5
2E5
330
6F
100
AcDbEntity
  8
CSLAYER1
  6
Continuous
 62
     7
100
AcDbLine
 10
227.0
 20
195.0
 30
0.0
 11
227.0
 21
158.0
 31
0.0
  0
LINE
  5
2E6
330
6F
100
AcDbEntity
  8
CSLAYER1
  6
Continuous
 62
     7
100
AcDbLine
 10
227.0
 20
165.0
 30
0.0
 11
287.0
 21
165.0
 31
0.0
  0
LINE
  5
2E7
330
6F
100
AcDbEntity
  8
CSLAYER1
  6
Continuous
 62
     7
100
AcDbLine
 10
287.0
 20
171.0
 30
0.0
 11
227.0
 21
171.0
 31
0.0
  0
LINE
  5
2E8
330
6F
100
AcDbEntity
  8
CSLAYER1
  6
Continuous
 62
     7
100
AcDbLine
 10
227.0
 20
177.0
 30
0.0
 11
287.0
 21
177.0
 31
0.0
  0
LINE
  5
2E9
330
6F
100
AcDbEntity
  8
CSLAYER1
  6
Continuous
 62
     7
100
AcDbLine
 10
287.0
 20
183.0
 30
0.0
 11
227.0
 21
183.0
 31
0.0
  0
LINE
  5
2EA
330
6F
100
AcDbEntity
  8
CSLAYER1
  6
Continuous
 62
     7
100
AcDbLine
 10
227.0
 20
189.0
 30
0.0
 11
287.0
 21
189.0
 31
0.0
  0
LINE
  5
2EB
330
6F
100
AcDbEntity
  8
CSLAYER1
  6
Continuous
 62
     7
100
AcDbLine
 10
247.0
 20
195.0
 30
0.0
 11
247.0
 21
171.0
 31
0.0
  0
TEXT
  5
2EC
330
6F
100
AcDbEntity
  8
CSLAYER1
 62
     7
100
AcDbText
 10
234.0
 20
190.0
 30
0.0
 40
4.0
  1
品名
 41
0.7258064516129032
  7
JX_FONT
 72
     5
 11
240.0
 21
190.0
 31
0.0
100
AcDbText
  0
TEXT
  5
2ED
330
6F
100
AcDbEntity
  8
CSLAYER1
 62
     7
100
AcDbText
 10
229.5
 20
178.0
 30
0.0
 40
4.0
  1
製品コード
 41
0.6696428571428572
  7
JX_FONT
 72
     5
 11
244.5
 21
178.0
 31
0.0
100
AcDbText
  0
TEXT
  5
2EE
330
6F
100
AcDbEntity
  8
CSLAYER1
 62
     7
100
AcDbText
 10
231.0
 20
166.0
 30
0.0
 40
4.0
  1
本体材質
 41
0.6617647058823529
  7
JX_FONT
 72
     5
 11
243.0
 21
166.0
 31
0.0
100
AcDbText
  0
TEXT
  5
2EF
330
6F
100
AcDbEntity
  8
CSLAYER1
 62
     7
100
AcDbText
 10
248.0
 20
190.0
 30
0.0
 40
4.0
  1
移充填弁
 41
0.6617647058823528
  7
JX_FONT
 72
     5
 11
260.0
 21
190.0
 31
0.0
100
AcDbText
  0
TEXT
  5
2F0
330
6F
100
AcDbEntity
  8
CSLAYER1
 62
     7
100
AcDbText
 10
234.0
 20
184.0
 30
0.0
 40
4.0
  1
型式
 41
0.703125
  7
JX_FONT
 72
     5
 11
240.0
 21
184.0
 31
0.0
100
AcDbText
  0
TEXT
  5
2F1
330
6F
100
AcDbEntity
  8
CSLAYER1
 62
     7
100
AcDbText
 10
248.0
 20
184.0
 30
0.0
 40
4.0
  1
LPF-220G
 41
0.7826086956521742
  7
JX_FONT
 72
     5
 11
272.0
 21
184.0
 31
0.0
100
AcDbText
  0
TEXT
  5
2F2
330
6F
100
AcDbEntity
  8
CSLAYER1
 62
     7
100
AcDbText
 10
248.0
 20
178.0
 30
0.0
 40
4.0
  1
LPF-220G-40
 41
0.7734375
  7
JX_FONT
 72
     5
 11
281.0
 21
178.0
 31
0.0
100
AcDbText
  0
TEXT
  5
2F3
330
6F
100
AcDbEntity
  8
CSLAYER1
 62
     7
100
AcDbText
 10
248.0
 20
166.0
 30
0.0
 40
4.0
  1
C3771B
 41
0.7941176470588235
  7
JX_FONT
 72
     5
 11
266.0
 21
166.0
 31
0.0
100
AcDbText
  0
TEXT
  5
2F4
330
6F
100
AcDbEntity
  8
CSLAYER1
 62
     7
100
AcDbText
 10
233.0
 20
159.0
 30
0.0
 40
5.0
  1
株式会社宮入バルブ製作所
 41
0.6792452830188678
  7
JX_FONT
 72
     5
 11
281.0
 21
159.0
 31
0.0
100
AcDbText
  0
TEXT
  5
2F5
330
6F
100
AcDbEntity
  8
CSLAYER1
 62
     7
100
AcDbText
 10
238.0
 20
154.5
 30
0.0
 40
3.0
  1
FILE No.LPF-220G-40
 41
0.6934306569343065
  7
JX_FONT
 72
     5
 11
276.0
 21
154.5
 31
0.0
100
AcDbText
  0
TEXT
  5
2F6
330
6F
100
AcDbEntity
  8
CSLAYER1
 62
     7
100
AcDbText
 10
231.0
 20
172.0
 30
0.0
 40
4.0
  1
営業図番
 41
0.6617647058823528
  7
JX_FONT
 72
     5
 11
243.0
 21
172.0
 31
0.0
100
AcDbText
  0
TEXT
  5
2F7
330
6F
100
AcDbEntity
  8
CSLAYER1
 62
     7
100
AcDbText
 10
248.0
 20
171.990463
 30
0.0
 40
4.0
  1
B-12015-40
 41
0.6465517241379312
  7
JX_FONT
 72
     5
 11
273.0
 21
171.990463
 31
0.0
100
AcDbText
  0
POLYLINE
  5
2F8
330
6F
100
AcDbEntity
  8
CSLAYER1
  6
Continuous
 62
     7
100
AcDb2dPolyline
 66
     1
 10
0.0
 20
0.0
 30
0.0
  0
VERTEX
  5
2F9
330
2F8
100
AcDbEntity
  8
CSLAYER1
  6
Continuous
 62
     7
100
AcDbVertex
100
AcDb2dVertex
 10
76.55547
 20
157.920481
 30
0.0
  0
VERTEX
  5
2FA
330
2F8
100
AcDbEntity
  8
CSLAYER1
  6
Continuous
 62
     7
100
AcDbVertex
100
AcDb2dVertex
 10
76.47483100000001
 20
158.018698
 30
0.0
  0
VERTEX
  5
2FB
330
2F8
100
AcDbEntity
  8
CSLAYER1
  6
Continuous
 62
     7
100
AcDbVertex
100
AcDb2dVertex
 10
76.420528
 20
158.081014
 30
0.0
  0
VERTEX
  5
2FC
330
2F8
100
AcDbEntity
  8
CSLAYER1
  6
Continuous
 62
     7
100
AcDbVertex
100
AcDb2dVertex
 10
76.36531999999999
 20
158.140226
 30
0.0
  0
VERTEX
  5
2FD
330
2F8
100
AcDbEntity
  8
CSLAYER1
  6
Continuous
 62
     7
100
AcDbVertex
100
AcDb2dVertex
 10
76.30912499999999
 20
158.196052
 30
0.0
  0
VERTEX
  5
2FE
330
2F8
100
AcDbEntity
  8
CSLAYER1
  6
Continuous
 62
     7
100
AcDbVertex
100
AcDb2dVertex
 10
76.25185899999999
 20
158.24821
 30
0.0
  0
VERTEX
  5
2FF
330
2F8
100
AcDbEntity
  8
CSLAYER1
  6
Continuous
 62
     7
100
AcDbVertex
100
AcDb2dVertex
 10
76.19343999999999
 20
158.296419
 30
0.0
  0
VERTEX
  5
300
330
2F8
100
AcDbEntity
  8
CSLAYER1
  6
Continuous
 62
     7
100
AcDbVertex
100
AcDb2dVertex
 10
76.133787
 20
158.340395
 30
0.0
  0
VERTEX
  5
301
330
2F8
100
AcDbEntity
  8
CSLAYER1
  6
Continuous
 62
     7
100
AcDbVertex
100
AcDb2dVertex
 10
76.072817
 20
158.379858
 30
0.0
  0
VERTEX
  5
302
330
2F8
100
AcDbEntity
  8
CSLAYER1
  6
Continuous
 62
     7
100
AcDbVertex
100
AcDb2dVertex
 10
76.010447
 20
158.414524
 30
0.0
  0
VERTEX
  5
303
330
2F8
100
AcDbEntity
  8
CSLAYER1
  6
Continuous
 62
     7
100
AcDbVertex
100
AcDb2dVertex
 10
75.946595
 20
158.444112
 30
0.0
  0
VERTEX
  5
304
330
2F8
100
AcDbEntity
  8
CSLAYER1
  6
Continuous
 62
     7
100
AcDbVertex
100
AcDb2dVertex
 10
75.881179
 20
158.468339
 30
0.0
  0
VERTEX
  5
305
330
2F8
100
AcDbEntity
  8
CSLAYER1
  6
Continuous
 62
     7
100
AcDbVertex
100
AcDb2dVertex
 10
75.81411700000001
 20
158.486923
 30
0.0
  0
VERTEX
  5
306
330
2F8
100
AcDbEntity
  8
CSLAYER1
  6
Continuous
 62
     7
100
AcDbVertex
100
AcDb2dVertex
 10
75.750497
 20
158.498938
 30
0.0
  0
VERTEX
  5
307
330
2F8
100
AcDbEntity
  8
CSLAYER1
  6
Continuous
 62
     7
100
AcDbVertex
100
AcDb2dVertex
 10
75.685489
 20
158.5061409999999
 30
0.0
  0
VERTEX
  5
308
330
2F8
100
AcDbEntity
  8
CSLAYER1
  6
Continuous
 62
     7
100
AcDbVertex
100
AcDb2dVertex
 10
75.61918900000001
 20
158.508801
 30
0.0
  0
VERTEX
  5
309
330
2F8
100
AcDbEntity
  8
CSLAYER1
  6
Continuous
 62
     7
100
AcDbVertex
100
AcDb2dVertex
 10
75.551691
 20
158.507188
 30
0.0
  0
VERTEX
  5
30A
330
2F8
100
AcDbEntity
  8
CSLAYER1
  6
Continuous
 62
     7
100
AcDbVertex
100
AcDb2dVertex
 10
75.483091
 20
158.501571
 30
0.0
  0
VERTEX
  5
30B
330
2F8
100
AcDbEntity
  8
CSLAYER1
  6
Continuous
 62
     7
100
AcDbVertex
100
AcDb2dVertex
 10
75.413483
 20
158.492219
 30
0.0
  0
VERTEX
  5
30C
330
2F8
100
AcDbEntity
  8
CSLAYER1
  6
Continuous
 62
     7
100
AcDbVertex
100
AcDb2dVertex
 10
75.34296199999999
 20
158.479401
 30
0.0
  0
VERTEX
  5
30D
330
2F8
100
AcDbEntity
  8
CSLAYER1
  6
Continuous
 62
     7
100
AcDbVertex
100
AcDb2dVertex
 10
75.271624
 20
158.463387
 30
0.0
  0
VERTEX
  5
30E
330
2F8
100
AcDbEntity
  8
CSLAYER1
  6
Continuous
 62
     7
100
AcDbVertex
100
AcDb2dVertex
 10
75.199563
 20
158.444447
 30
0.0
  0
VERTEX
  5
30F
330
2F8
100
AcDbEntity
  8
CSLAYER1
  6
Continuous
 62
     7
100
AcDbVertex
100
AcDb2dVertex
 10
75.126875
 20
158.422849
 30
0.0
  0
VERTEX
  5
310
330
2F8
100
AcDbEntity
  8
CSLAYER1
  6
Continuous
 62
     7
100
AcDbVertex
100
AcDb2dVertex
 10
75.053653
 20
158.398864
 30
0.0
  0
VERTEX
  5
311
330
2F8
100
AcDbEntity
  8
CSLAYER1
  6
Continuous
 62
     7
100
AcDbVertex
100
AcDb2dVertex
 10
74.979995
 20
158.372759
 30
0.0
  0
VERTEX
  5
312
330
2F8
100
AcDbEntity
  8
CSLAYER1
  6
Continuous
 62
     7
100
AcDbVertex
100
AcDb2dVertex
 10
74.90599399999999
 20
158.344806
 30
0.0
  0
VERTEX
  5
313
330
2F8
100
AcDbEntity
  8
CSLAYER1
  6
Continuous
 62
     7
100
AcDbVertex
100
AcDb2dVertex
 10
74.831745
 20
158.315272
 30
0.0
  0
VERTEX
  5
314
330
2F8
100
AcDbEntity
  8
CSLAYER1
  6
Continuous
 62
     7
100
AcDbVertex
100
AcDb2dVertex
 10
74.75734399999999
 20
158.284428
 30
0.0
  0
VERTEX
  5
315
330
2F8
100
AcDbEntity
  8
CSLAYER1
  6
Continuous
 62
     7
100
AcDbVertex
100
AcDb2dVertex
 10
74.68288499999999
 20
158.252542
 30
0.0
  0
VERTEX
  5
316
330
2F8
100
AcDbEntity
  8
CSLAYER1
  6
Continuous
 62
     7
100
AcDbVertex
100
AcDb2dVertex
 10
74.608464
 20
158.219885
 30
0.0
  0
VERTEX
  5
317
330
2F8
100
AcDbEntity
  8
CSLAYER1
  6
Continuous
 62
     7
100
AcDbVertex
100
AcDb2dVertex
 10
74.534175
 20
158.186725
 30
0.0
  0
VERTEX
  5
318
330
2F8
100
AcDbEntity
  8
CSLAYER1
  6
Continuous
 62
     7
100
AcDbVertex
100
AcDb2dVertex
 10
74.460114
 20
158.153332
 30
0.0
  0
VERTEX
  5
319
330
2F8
100
AcDbEntity
  8
CSLAYER1
  6
Continuous
 62
     7
100
AcDbVertex
100
AcDb2dVertex
 10
74.386375
 20
158.119975
 30
0.0
  0
VERTEX
  5
31A
330
2F8
100
AcDbEntity
  8
CSLAYER1
  6
Continuous
 62
     7
100
AcDbVertex
100
AcDb2dVertex
 10
74.31305400000001
 20
158.086923
 30
0.0
  0
VERTEX
  5
31B
330
2F8
100
AcDbEntity
  8
CSLAYER1
  6
Continuous
 62
     7
100
AcDbVertex
100
AcDb2dVertex
 10
74.22159599999999
 20
158.046131
 30
0.0
  0
VERTEX
  5
31C
330
2F8
100
AcDbEntity
  8
CSLAYER1
  6
Continuous
 62
     7
100
AcDbVertex
100
AcDb2dVertex
 10
74.13090799999999
 20
158.006204
 30
0.0
  0
VERTEX
  5
31D
330
2F8
100
AcDbEntity
  8
CSLAYER1
  6
Continuous
 62
     7
100
AcDbVertex
100
AcDb2dVertex
 10
74.040953
 20
157.967099
 30
0.0
  0
VERTEX
  5
31E
330
2F8
100
AcDbEntity
  8
CSLAYER1
  6
Continuous
 62
     7
100
AcDbVertex
100
AcDb2dVertex
 10
73.95169200000001
 20
157.928772
 30
0.0
  0
VERTEX
  5
31F
330
2F8
100
AcDbEntity
  8
CSLAYER1
  6
Continuous
 62
     7
100
AcDbVertex
100
AcDb2dVertex
 10
73.86308699999999
 20
157.89118
 30
0.0
  0
VERTEX
  5
320
330
2F8
100
AcDbEntity
  8
CSLAYER1
  6
Continuous
 62
     7
100
AcDbVertex
100
AcDb2dVertex
 10
73.77509899999999
 20
157.854281
 30
0.0
  0
VERTEX
  5
321
330
2F8
100
AcDbEntity
  8
CSLAYER1
  6
Continuous
 62
     7
100
AcDbVertex
100
AcDb2dVertex
 10
73.687689
 20
157.81803
 30
0.0
  0
VERTEX
  5
322
330
2F8
100
AcDbEntity
  8
CSLAYER1
  6
Continuous
 62
     7
100
AcDbVertex
100
AcDb2dVertex
 10
73.600819
 20
157.782384
 30
0.0
  0
VERTEX
  5
323
330
2F8
100
AcDbEntity
  8
CSLAYER1
  6
Continuous
 62
     7
100
AcDbVertex
100
AcDb2dVertex
 10
73.51445099999999
 20
157.747301
 30
0.0
  0
VERTEX
  5
324
330
2F8
100
AcDbEntity
  8
CSLAYER1
  6
Continuous
 62
     7
100
AcDbVertex
100
AcDb2dVertex
 10
73.428545
 20
157.712736
 30
0.0
  0
VERTEX
  5
325
330
2F8
100
AcDbEntity
  8
CSLAYER1
  6
Continuous
 62
     7
100
AcDbVertex
100
AcDb2dVertex
 10
73.343063
 20
157.678647
 30
0.0
  0
VERTEX
  5
326
330
2F8
100
AcDbEntity
  8
CSLAYER1
  6
Continuous
 62
     7
100
AcDbVertex
100
AcDb2dVertex
 10
73.25796700000001
 20
157.644991
 30
0.0
  0
VERTEX
  5
327
330
2F8
100
AcDbEntity
  8
CSLAYER1
  6
Continuous
 62
     7
100
AcDbVertex
100
AcDb2dVertex
 10
73.17321800000001
 20
157.611724
 30
0.0
  0
VERTEX
  5
328
330
2F8
100
AcDbEntity
  8
CSLAYER1
  6
Continuous
 62
     7
100
AcDbVertex
100
AcDb2dVertex
 10
73.08877800000001
 20
157.578803
 30
0.0
  0
VERTEX
  5
329
330
2F8
100
AcDbEntity
  8
CSLAYER1
  6
Continuous
 62
     7
100
AcDbVertex
100
AcDb2dVertex
 10
73.00460699999999
 20
157.546184
 30
0.0
  0
VERTEX
  5
32A
330
2F8
100
AcDbEntity
  8
CSLAYER1
  6
Continuous
 62
     7
100
AcDbVertex
100
AcDb2dVertex
 10
72.920668
 20
157.513825
 30
0.0
  0
VERTEX
  5
32B
330
2F8
100
AcDbEntity
  8
CSLAYER1
  6
Continuous
 62
     7
100
AcDbVertex
100
AcDb2dVertex
 10
72.836922
 20
157.481683
 30
0.0
  0
VERTEX
  5
32C
330
2F8
100
AcDbEntity
  8
CSLAYER1
  6
Continuous
 62
     7
100
AcDbVertex
100
AcDb2dVertex
 10
72.75333
 20
157.449713
 30
0.0
  0
VERTEX
  5
32D
330
2F8
100
AcDbEntity
  8
CSLAYER1
  6
Continuous
 62
     7
100
AcDbVertex
100
AcDb2dVertex
 10
72.669853
 20
157.417873
 30
0.0
  0
VERTEX
  5
32E
330
2F8
100
AcDbEntity
  8
CSLAYER1
  6
Continuous
 62
     7
100
AcDbVertex
100
AcDb2dVertex
 10
72.586454
 20
157.38612
 30
0.0
  0
VERTEX
  5
32F
330
2F8
100
AcDbEntity
  8
CSLAYER1
  6
Continuous
 62
     7
100
AcDbVertex
100
AcDb2dVertex
 10
72.50309300000001
 20
157.354409
 30
0.0
  0
SEQEND
  5
330
330
2F8
100
AcDbEntity
  8
CSLAYER1
 62
     7
  0
POLYLINE
  5
331
330
6F
100
AcDbEntity
  8
CSLAYER1
  6
Continuous
 62
     7
100
AcDb2dPolyline
 66
     1
 10
0.0
 20
0.0
 30
0.0
  0
VERTEX
  5
332
330
331
100
AcDbEntity
  8
CSLAYER1
  6
Continuous
 62
     7
100
AcDbVertex
100
AcDb2dVertex
 10
117.924158
 20
157.286923
 30
0.0
  0
VERTEX
  5
333
330
331
100
AcDbEntity
  8
CSLAYER1
  6
Continuous
 62
     7
100
AcDbVertex
100
AcDb2dVertex
 10
117.973933
 20
157.364756
 30
0.0
  0
VERTEX
  5
334
330
331
100
AcDbEntity
  8
CSLAYER1
  6
Continuous
 62
     7
100
AcDbVertex
100
AcDb2dVertex
 10
118.02379
 20
157.442306
 30
0.0
  0
VERTEX
  5
335
330
331
100
AcDbEntity
  8
CSLAYER1
  6
Continuous
 62
     7
100
AcDbVertex
100
AcDb2dVertex
 10
118.073811
 20
157.519293
 30
0.0
  0
VERTEX
  5
336
330
331
100
AcDbEntity
  8
CSLAYER1
  6
Continuous
 62
     7
100
AcDbVertex
100
AcDb2dVertex
 10
118.12408
 20
157.595433
 30
0.0
  0
VERTEX
  5
337
330
331
100
AcDbEntity
  8
CSLAYER1
  6
Continuous
 62
     7
100
AcDbVertex
100
AcDb2dVertex
 10
118.174677
 20
157.670444
 30
0.0
  0
VERTEX
  5
338
330
331
100
AcDbEntity
  8
CSLAYER1
  6
Continuous
 62
     7
100
AcDbVertex
100
AcDb2dVertex
 10
118.225687
 20
157.744045
 30
0.0
  0
VERTEX
  5
339
330
331
100
AcDbEntity
  8
CSLAYER1
  6
Continuous
 62
     7
100
AcDbVertex
100
AcDb2dVertex
 10
118.27719
 20
157.815953
 30
0.0
  0
VERTEX
  5
33A
330
331
100
AcDbEntity
  8
CSLAYER1
  6
Continuous
 62
     7
100
AcDbVertex
100
AcDb2dVertex
 10
118.32927
 20
157.885886
 30
0.0
  0
VERTEX
  5
33B
330
331
100
AcDbEntity
  8
CSLAYER1
  6
Continuous
 62
     7
100
AcDbVertex
100
AcDb2dVertex
 10
118.382008
 20
157.953562
 30
0.0
  0
VERTEX
  5
33C
330
331
100
AcDbEntity
  8
CSLAYER1
  6
Continuous
 62
     7
100
AcDbVertex
100
AcDb2dVertex
 10
118.435487
 20
158.018698
 30
0.0
  0
VERTEX
  5
33D
330
331
100
AcDbEntity
  8
CSLAYER1
  6
Continuous
 62
     7
100
AcDbVertex
100
AcDb2dVertex
 10
118.48979
 20
158.081014
 30
0.0
  0
VERTEX
  5
33E
330
331
100
AcDbEntity
  8
CSLAYER1
  6
Continuous
 62
     7
100
AcDbVertex
100
AcDb2dVertex
 10
118.544997
 20
158.140226
 30
0.0
  0
VERTEX
  5
33F
330
331
100
AcDbEntity
  8
CSLAYER1
  6
Continuous
 62
     7
100
AcDbVertex
100
AcDb2dVertex
 10
118.601193
 20
158.196052
 30
0.0
  0
VERTEX
  5
340
330
331
100
AcDbEntity
  8
CSLAYER1
  6
Continuous
 62
     7
100
AcDbVertex
100
AcDb2dVertex
 10
118.658459
 20
158.24821
 30
0.0
  0
VERTEX
  5
341
330
331
100
AcDbEntity
  8
CSLAYER1
  6
Continuous
 62
     7
100
AcDbVertex
100
AcDb2dVertex
 10
118.716878
 20
158.296419
 30
0.0
  0
VERTEX
  5
342
330
331
100
AcDbEntity
  8
CSLAYER1
  6
Continuous
 62
     7
100
AcDbVertex
100
AcDb2dVertex
 10
118.776531
 20
158.340395
 30
0.0
  0
VERTEX
  5
343
330
331
100
AcDbEntity
  8
CSLAYER1
  6
Continuous
 62
     7
100
AcDbVertex
100
AcDb2dVertex
 10
118.837501
 20
158.379858
 30
0.0
  0
VERTEX
  5
344
330
331
100
AcDbEntity
  8
CSLAYER1
  6
Continuous
 62
     7
100
AcDbVertex
100
AcDb2dVertex
 10
118.899871
 20
158.414524
 30
0.0
  0
VERTEX
  5
345
330
331
100
AcDbEntity
  8
CSLAYER1
  6
Continuous
 62
     7
100
AcDbVertex
100
AcDb2dVertex
 10
118.963723
 20
158.444112
 30
0.0
  0
VERTEX
  5
346
330
331
100
AcDbEntity
  8
CSLAYER1
  6
Continuous
 62
     7
100
AcDbVertex
100
AcDb2dVertex
 10
119.029139
 20
158.468339
 30
0.0
  0
VERTEX
  5
347
330
331
100
AcDbEntity
  8
CSLAYER1
  6
Continuous
 62
     7
100
AcDbVertex
100
AcDb2dVertex
 10
119.096201
 20
158.486923
 30
0.0
  0
VERTEX
  5
348
330
331
100
AcDbEntity
  8
CSLAYER1
  6
Continuous
 62
     7
100
AcDbVertex
100
AcDb2dVertex
 10
119.159821
 20
158.498938
 30
0.0
  0
VERTEX
  5
349
330
331
100
AcDbEntity
  8
CSLAYER1
  6
Continuous
 62
     7
100
AcDbVertex
100
AcDb2dVertex
 10
119.224828
 20
158.5061409999999
 30
0.0
  0
VERTEX
  5
34A
330
331
100
AcDbEntity
  8
CSLAYER1
  6
Continuous
 62
     7
100
AcDbVertex
100
AcDb2dVertex
 10
119.291129
 20
158.508801
 30
0.0
  0
VERTEX
  5
34B
330
331
100
AcDbEntity
  8
CSLAYER1
  6
Continuous
 62
     7
100
AcDbVertex
100
AcDb2dVertex
 10
119.358626
 20
158.507188
 30
0.0
  0
VERTEX
  5
34C
330
331
100
AcDbEntity
  8
CSLAYER1
  6
Continuous
 62
     7
100
AcDbVertex
100
AcDb2dVertex
 10
119.427227
 20
158.501571
 30
0.0
  0
VERTEX
  5
34D
330
331
100
AcDbEntity
  8
CSLAYER1
  6
Continuous
 62
     7
100
AcDbVertex
100
AcDb2dVertex
 10
119.496835
 20
158.492219
 30
0.0
  0
VERTEX
  5
34E
330
331
100
AcDbEntity
  8
CSLAYER1
  6
Continuous
 62
     7
100
AcDbVertex
100
AcDb2dVertex
 10
119.567356
 20
158.479401
 30
0.0
  0
VERTEX
  5
34F
330
331
100
AcDbEntity
  8
CSLAYER1
  6
Continuous
 62
     7
100
AcDbVertex
100
AcDb2dVertex
 10
119.638694
 20
158.463387
 30
0.0
  0
VERTEX
  5
350
330
331
100
AcDbEntity
  8
CSLAYER1
  6
Continuous
 62
     7
100
AcDbVertex
100
AcDb2dVertex
 10
119.710755
 20
158.444447
 30
0.0
  0
VERTEX
  5
351
330
331
100
AcDbEntity
  8
CSLAYER1
  6
Continuous
 62
     7
100
AcDbVertex
100
AcDb2dVertex
 10
119.783443
 20
158.422849
 30
0.0
  0
VERTEX
  5
352
330
331
100
AcDbEntity
  8
CSLAYER1
  6
Continuous
 62
     7
100
AcDbVertex
100
AcDb2dVertex
 10
119.856664
 20
158.398864
 30
0.0
  0
VERTEX
  5
353
330
331
100
AcDbEntity
  8
CSLAYER1
  6
Continuous
 62
     7
100
AcDbVertex
100
AcDb2dVertex
 10
119.930323
 20
158.372759
 30
0.0
  0
VERTEX
  5
354
330
331
100
AcDbEntity
  8
CSLAYER1
  6
Continuous
 62
     7
100
AcDbVertex
100
AcDb2dVertex
 10
120.004324
 20
158.344806
 30
0.0
  0
VERTEX
  5
355
330
331
100
AcDbEntity
  8
CSLAYER1
  6
Continuous
 62
     7
100
AcDbVertex
100
AcDb2dVertex
 10
120.078573
 20
158.315272
 30
0.0
  0
VERTEX
  5
356
330
331
100
AcDbEntity
  8
CSLAYER1
  6
Continuous
 62
     7
100
AcDbVertex
100
AcDb2dVertex
 10
120.152974
 20
158.284428
 30
0.0
  0
VERTEX
  5
357
330
331
100
AcDbEntity
  8
CSLAYER1
  6
Continuous
 62
     7
100
AcDbVertex
100
AcDb2dVertex
 10
120.227433
 20
158.252542
 30
0.0
  0
VERTEX
  5
358
330
331
100
AcDbEntity
  8
CSLAYER1
  6
Continuous
 62
     7
100
AcDbVertex
100
AcDb2dVertex
 10
120.301854
 20
158.219885
 30
0.0
  0
VERTEX
  5
359
330
331
100
AcDbEntity
  8
CSLAYER1
  6
Continuous
 62
     7
100
AcDbVertex
100
AcDb2dVertex
 10
120.376143
 20
158.186725
 30
0.0
  0
VERTEX
  5
35A
330
331
100
AcDbEntity
  8
CSLAYER1
  6
Continuous
 62
     7
100
AcDbVertex
100
AcDb2dVertex
 10
120.450204
 20
158.153332
 30
0.0
  0
VERTEX
  5
35B
330
331
100
AcDbEntity
  8
CSLAYER1
  6
Continuous
 62
     7
100
AcDbVertex
100
AcDb2dVertex
 10
120.523942
 20
158.119975
 30
0.0
  0
VERTEX
  5
35C
330
331
100
AcDbEntity
  8
CSLAYER1
  6
Continuous
 62
     7
100
AcDbVertex
100
AcDb2dVertex
 10
120.597264
 20
158.086923
 30
0.0
  0
VERTEX
  5
35D
330
331
100
AcDbEntity
  8
CSLAYER1
  6
Continuous
 62
     7
100
AcDbVertex
100
AcDb2dVertex
 10
120.688722
 20
158.046131
 30
0.0
  0
VERTEX
  5
35E
330
331
100
AcDbEntity
  8
CSLAYER1
  6
Continuous
 62
     7
100
AcDbVertex
100
AcDb2dVertex
 10
120.77941
 20
158.006204
 30
0.0
  0
VERTEX
  5
35F
330
331
100
AcDbEntity
  8
CSLAYER1
  6
Continuous
 62
     7
100
AcDbVertex
100
AcDb2dVertex
 10
120.869365
 20
157.967099
 30
0.0
  0
VERTEX
  5
360
330
331
100
AcDbEntity
  8
CSLAYER1
  6
Continuous
 62
     7
100
AcDbVertex
100
AcDb2dVertex
 10
120.958625
 20
157.928772
 30
0.0
  0
VERTEX
  5
361
330
331
100
AcDbEntity
  8
CSLAYER1
  6
Continuous
 62
     7
100
AcDbVertex
100
AcDb2dVertex
 10
121.047231
 20
157.89118
 30
0.0
  0
VERTEX
  5
362
330
331
100
AcDbEntity
  8
CSLAYER1
  6
Continuous
 62
     7
100
AcDbVertex
100
AcDb2dVertex
 10
121.135219
 20
157.854281
 30
0.0
  0
VERTEX
  5
363
330
331
100
AcDbEntity
  8
CSLAYER1
  6
Continuous
 62
     7
100
AcDbVertex
100
AcDb2dVertex
 10
121.222629
 20
157.81803
 30
0.0
  0
VERTEX
  5
364
330
331
100
AcDbEntity
  8
CSLAYER1
  6
Continuous
 62
     7
100
AcDbVertex
100
AcDb2dVertex
 10
121.309498
 20
157.782384
 30
0.0
  0
VERTEX
  5
365
330
331
100
AcDbEntity
  8
CSLAYER1
  6
Continuous
 62
     7
100
AcDbVertex
100
AcDb2dVertex
 10
121.395867
 20
157.747301
 30
0.0
  0
VERTEX
  5
366
330
331
100
AcDbEntity
  8
CSLAYER1
  6
Continuous
 62
     7
100
AcDbVertex
100
AcDb2dVertex
 10
121.481773
 20
157.712736
 30
0.0
  0
VERTEX
  5
367
330
331
100
AcDbEntity
  8
CSLAYER1
  6
Continuous
 62
     7
100
AcDbVertex
100
AcDb2dVertex
 10
121.567255
 20
157.678647
 30
0.0
  0
VERTEX
  5
368
330
331
100
AcDbEntity
  8
CSLAYER1
  6
Continuous
 62
     7
100
AcDbVertex
100
AcDb2dVertex
 10
121.652351
 20
157.644991
 30
0.0
  0
VERTEX
  5
369
330
331
100
AcDbEntity
  8
CSLAYER1
  6
Continuous
 62
     7
100
AcDbVertex
100
AcDb2dVertex
 10
121.7371
 20
157.611724
 30
0.0
  0
VERTEX
  5
36A
330
331
100
AcDbEntity
  8
CSLAYER1
  6
Continuous
 62
     7
100
AcDbVertex
100
AcDb2dVertex
 10
121.82154
 20
157.578803
 30
0.0
  0
VERTEX
  5
36B
330
331
100
AcDbEntity
  8
CSLAYER1
  6
Continuous
 62
     7
100
AcDbVertex
100
AcDb2dVertex
 10
121.905711
 20
157.546184
 30
0.0
  0
VERTEX
  5
36C
330
331
100
AcDbEntity
  8
CSLAYER1
  6
Continuous
 62
     7
100
AcDbVertex
100
AcDb2dVertex
 10
121.98965
 20
157.513825
 30
0.0
  0
VERTEX
  5
36D
330
331
100
AcDbEntity
  8
CSLAYER1
  6
Continuous
 62
     7
100
AcDbVertex
100
AcDb2dVertex
 10
122.073396
 20
157.481683
 30
0.0
  0
VERTEX
  5
36E
330
331
100
AcDbEntity
  8
CSLAYER1
  6
Continuous
 62
     7
100
AcDbVertex
100
AcDb2dVertex
 10
122.156988
 20
157.449713
 30
0.0
  0
VERTEX
  5
36F
330
331
100
AcDbEntity
  8
CSLAYER1
  6
Continuous
 62
     7
100
AcDbVertex
100
AcDb2dVertex
 10
122.240465
 20
157.417873
 30
0.0
  0
VERTEX
  5
370
330
331
100
AcDbEntity
  8
CSLAYER1
  6
Continuous
 62
     7
100
AcDbVertex
100
AcDb2dVertex
 10
122.323864
 20
157.38612
 30
0.0
  0
VERTEX
  5
371
330
331
100
AcDbEntity
  8
CSLAYER1
  6
Continuous
 62
     7
100
AcDbVertex
100
AcDb2dVertex
 10
122.407225
 20
157.354409
 30
0.0
  0
SEQEND
  5
372
330
331
100
AcDbEntity
  8
CSLAYER1
 62
     7
  0
POLYLINE
  5
373
330
6F
100
AcDbEntity
  8
CSLAYER1
  6
Continuous
 62
     7
100
AcDb2dPolyline
 66
     1
 10
0.0
 20
0.0
 30
0.0
  0
VERTEX
  5
374
330
373
100
AcDbEntity
  8
CSLAYER1
  6
Continuous
 62
     7
100
AcDbVertex
100
AcDb2dVertex
 10
118.354847
 20
157.920481
 30
0.0
  0
VERTEX
  5
375
330
373
100
AcDbEntity
  8
CSLAYER1
  6
Continuous
 62
     7
100
AcDbVertex
100
AcDb2dVertex
 10
118.435487
 20
158.018698
 30
0.0
  0
VERTEX
  5
376
330
373
100
AcDbEntity
  8
CSLAYER1
  6
Continuous
 62
     7
100
AcDbVertex
100
AcDb2dVertex
 10
118.48979
 20
158.081014
 30
0.0
  0
VERTEX
  5
377
330
373
100
AcDbEntity
  8
CSLAYER1
  6
Continuous
 62
     7
100
AcDbVertex
100
AcDb2dVertex
 10
118.544997
 20
158.140226
 30
0.0
  0
VERTEX
  5
378
330
373
100
AcDbEntity
  8
CSLAYER1
  6
Continuous
 62
     7
100
AcDbVertex
100
AcDb2dVertex
 10
118.601193
 20
158.196052
 30
0.0
  0
VERTEX
  5
379
330
373
100
AcDbEntity
  8
CSLAYER1
  6
Continuous
 62
     7
100
AcDbVertex
100
AcDb2dVertex
 10
118.658459
 20
158.24821
 30
0.0
  0
VERTEX
  5
37A
330
373
100
AcDbEntity
  8
CSLAYER1
  6
Continuous
 62
     7
100
AcDbVertex
100
AcDb2dVertex
 10
118.716878
 20
158.296419
 30
0.0
  0
VERTEX
  5
37B
330
373
100
AcDbEntity
  8
CSLAYER1
  6
Continuous
 62
     7
100
AcDbVertex
100
AcDb2dVertex
 10
118.776531
 20
158.340395
 30
0.0
  0
VERTEX
  5
37C
330
373
100
AcDbEntity
  8
CSLAYER1
  6
Continuous
 62
     7
100
AcDbVertex
100
AcDb2dVertex
 10
118.837501
 20
158.379858
 30
0.0
  0
VERTEX
  5
37D
330
373
100
AcDbEntity
  8
CSLAYER1
  6
Continuous
 62
     7
100
AcDbVertex
100
AcDb2dVertex
 10
118.899871
 20
158.414524
 30
0.0
  0
VERTEX
  5
37E
330
373
100
AcDbEntity
  8
CSLAYER1
  6
Continuous
 62
     7
100
AcDbVertex
100
AcDb2dVertex
 10
118.963723
 20
158.444112
 30
0.0
  0
VERTEX
  5
37F
330
373
100
AcDbEntity
  8
CSLAYER1
  6
Continuous
 62
     7
100
AcDbVertex
100
AcDb2dVertex
 10
119.029139
 20
158.468339
 30
0.0
  0
VERTEX
  5
380
330
373
100
AcDbEntity
  8
CSLAYER1
  6
Continuous
 62
     7
100
AcDbVertex
100
AcDb2dVertex
 10
119.096201
 20
158.486923
 30
0.0
  0
VERTEX
  5
381
330
373
100
AcDbEntity
  8
CSLAYER1
  6
Continuous
 62
     7
100
AcDbVertex
100
AcDb2dVertex
 10
119.159821
 20
158.498938
 30
0.0
  0
VERTEX
  5
382
330
373
100
AcDbEntity
  8
CSLAYER1
  6
Continuous
 62
     7
100
AcDbVertex
100
AcDb2dVertex
 10
119.224828
 20
158.5061409999999
 30
0.0
  0
VERTEX
  5
383
330
373
100
AcDbEntity
  8
CSLAYER1
  6
Continuous
 62
     7
100
AcDbVertex
100
AcDb2dVertex
 10
119.291129
 20
158.508801
 30
0.0
  0
VERTEX
  5
384
330
373
100
AcDbEntity
  8
CSLAYER1
  6
Continuous
 62
     7
100
AcDbVertex
100
AcDb2dVertex
 10
119.358626
 20
158.507188
 30
0.0
  0
VERTEX
  5
385
330
373
100
AcDbEntity
  8
CSLAYER1
  6
Continuous
 62
     7
100
AcDbVertex
100
AcDb2dVertex
 10
119.427227
 20
158.501571
 30
0.0
  0
VERTEX
  5
386
330
373
100
AcDbEntity
  8
CSLAYER1
  6
Continuous
 62
     7
100
AcDbVertex
100
AcDb2dVertex
 10
119.496835
 20
158.492219
 30
0.0
  0
VERTEX
  5
387
330
373
100
AcDbEntity
  8
CSLAYER1
  6
Continuous
 62
     7
100
AcDbVertex
100
AcDb2dVertex
 10
119.567356
 20
158.479401
 30
0.0
  0
VERTEX
  5
388
330
373
100
AcDbEntity
  8
CSLAYER1
  6
Continuous
 62
     7
100
AcDbVertex
100
AcDb2dVertex
 10
119.638694
 20
158.463387
 30
0.0
  0
VERTEX
  5
389
330
373
100
AcDbEntity
  8
CSLAYER1
  6
Continuous
 62
     7
100
AcDbVertex
100
AcDb2dVertex
 10
119.710755
 20
158.444447
 30
0.0
  0
VERTEX
  5
38A
330
373
100
AcDbEntity
  8
CSLAYER1
  6
Continuous
 62
     7
100
AcDbVertex
100
AcDb2dVertex
 10
119.783443
 20
158.422849
 30
0.0
  0
VERTEX
  5
38B
330
373
100
AcDbEntity
  8
CSLAYER1
  6
Continuous
 62
     7
100
AcDbVertex
100
AcDb2dVertex
 10
119.856664
 20
158.398864
 30
0.0
  0
VERTEX
  5
38C
330
373
100
AcDbEntity
  8
CSLAYER1
  6
Continuous
 62
     7
100
AcDbVertex
100
AcDb2dVertex
 10
119.930323
 20
158.372759
 30
0.0
  0
VERTEX
  5
38D
330
373
100
AcDbEntity
  8
CSLAYER1
  6
Continuous
 62
     7
100
AcDbVertex
100
AcDb2dVertex
 10
120.004324
 20
158.344806
 30
0.0
  0
VERTEX
  5
38E
330
373
100
AcDbEntity
  8
CSLAYER1
  6
Continuous
 62
     7
100
AcDbVertex
100
AcDb2dVertex
 10
120.078573
 20
158.315272
 30
0.0
  0
VERTEX
  5
38F
330
373
100
AcDbEntity
  8
CSLAYER1
  6
Continuous
 62
     7
100
AcDbVertex
100
AcDb2dVertex
 10
120.152974
 20
158.284428
 30
0.0
  0
VERTEX
  5
390
330
373
100
AcDbEntity
  8
CSLAYER1
  6
Continuous
 62
     7
100
AcDbVertex
100
AcDb2dVertex
 10
120.227433
 20
158.252542
 30
0.0
  0
VERTEX
  5
391
330
373
100
AcDbEntity
  8
CSLAYER1
  6
Continuous
 62
     7
100
AcDbVertex
100
AcDb2dVertex
 10
120.301854
 20
158.219885
 30
0.0
  0
VERTEX
  5
392
330
373
100
AcDbEntity
  8
CSLAYER1
  6
Continuous
 62
     7
100
AcDbVertex
100
AcDb2dVertex
 10
120.376143
 20
158.186725
 30
0.0
  0
VERTEX
  5
393
330
373
100
AcDbEntity
  8
CSLAYER1
  6
Continuous
 62
     7
100
AcDbVertex
100
AcDb2dVertex
 10
120.450204
 20
158.153332
 30
0.0
  0
VERTEX
  5
394
330
373
100
AcDbEntity
  8
CSLAYER1
  6
Continuous
 62
     7
100
AcDbVertex
100
AcDb2dVertex
 10
120.523942
 20
158.119975
 30
0.0
  0
VERTEX
  5
395
330
373
100
AcDbEntity
  8
CSLAYER1
  6
Continuous
 62
     7
100
AcDbVertex
100
AcDb2dVertex
 10
120.597264
 20
158.086923
 30
0.0
  0
VERTEX
  5
396
330
373
100
AcDbEntity
  8
CSLAYER1
  6
Continuous
 62
     7
100
AcDbVertex
100
AcDb2dVertex
 10
120.688722
 20
158.046131
 30
0.0
  0
VERTEX
  5
397
330
373
100
AcDbEntity
  8
CSLAYER1
  6
Continuous
 62
     7
100
AcDbVertex
100
AcDb2dVertex
 10
120.77941
 20
158.006204
 30
0.0
  0
VERTEX
  5
398
330
373
100
AcDbEntity
  8
CSLAYER1
  6
Continuous
 62
     7
100
AcDbVertex
100
AcDb2dVertex
 10
120.869365
 20
157.967099
 30
0.0
  0
VERTEX
  5
399
330
373
100
AcDbEntity
  8
CSLAYER1
  6
Continuous
 62
     7
100
AcDbVertex
100
AcDb2dVertex
 10
120.958625
 20
157.928772
 30
0.0
  0
VERTEX
  5
39A
330
373
100
AcDbEntity
  8
CSLAYER1
  6
Continuous
 62
     7
100
AcDbVertex
100
AcDb2dVertex
 10
121.047231
 20
157.89118
 30
0.0
  0
VERTEX
  5
39B
330
373
100
AcDbEntity
  8
CSLAYER1
  6
Continuous
 62
     7
100
AcDbVertex
100
AcDb2dVertex
 10
121.135219
 20
157.854281
 30
0.0
  0
VERTEX
  5
39C
330
373
100
AcDbEntity
  8
CSLAYER1
  6
Continuous
 62
     7
100
AcDbVertex
100
AcDb2dVertex
 10
121.222629
 20
157.81803
 30
0.0
  0
VERTEX
  5
39D
330
373
100
AcDbEntity
  8
CSLAYER1
  6
Continuous
 62
     7
100
AcDbVertex
100
AcDb2dVertex
 10
121.309498
 20
157.782384
 30
0.0
  0
VERTEX
  5
39E
330
373
100
AcDbEntity
  8
CSLAYER1
  6
Continuous
 62
     7
100
AcDbVertex
100
AcDb2dVertex
 10
121.395867
 20
157.747301
 30
0.0
  0
VERTEX
  5
39F
330
373
100
AcDbEntity
  8
CSLAYER1
  6
Continuous
 62
     7
100
AcDbVertex
100
AcDb2dVertex
 10
121.481773
 20
157.712736
 30
0.0
  0
VERTEX
  5
3A0
330
373
100
AcDbEntity
  8
CSLAYER1
  6
Continuous
 62
     7
100
AcDbVertex
100
AcDb2dVertex
 10
121.567255
 20
157.678647
 30
0.0
  0
VERTEX
  5
3A1
330
373
100
AcDbEntity
  8
CSLAYER1
  6
Continuous
 62
     7
100
AcDbVertex
100
AcDb2dVertex
 10
121.652351
 20
157.644991
 30
0.0
  0
VERTEX
  5
3A2
330
373
100
AcDbEntity
  8
CSLAYER1
  6
Continuous
 62
     7
100
AcDbVertex
100
AcDb2dVertex
 10
121.7371
 20
157.611724
 30
0.0
  0
VERTEX
  5
3A3
330
373
100
AcDbEntity
  8
CSLAYER1
  6
Continuous
 62
     7
100
AcDbVertex
100
AcDb2dVertex
 10
121.82154
 20
157.578803
 30
0.0
  0
VERTEX
  5
3A4
330
373
100
AcDbEntity
  8
CSLAYER1
  6
Continuous
 62
     7
100
AcDbVertex
100
AcDb2dVertex
 10
121.905711
 20
157.546184
 30
0.0
  0
VERTEX
  5
3A5
330
373
100
AcDbEntity
  8
CSLAYER1
  6
Continuous
 62
     7
100
AcDbVertex
100
AcDb2dVertex
 10
121.98965
 20
157.513825
 30
0.0
  0
VERTEX
  5
3A6
330
373
100
AcDbEntity
  8
CSLAYER1
  6
Continuous
 62
     7
100
AcDbVertex
100
AcDb2dVertex
 10
122.073396
 20
157.481683
 30
0.0
  0
VERTEX
  5
3A7
330
373
100
AcDbEntity
  8
CSLAYER1
  6
Continuous
 62
     7
100
AcDbVertex
100
AcDb2dVertex
 10
122.156988
 20
157.449713
 30
0.0
  0
VERTEX
  5
3A8
330
373
100
AcDbEntity
  8
CSLAYER1
  6
Continuous
 62
     7
100
AcDbVertex
100
AcDb2dVertex
 10
122.240465
 20
157.417873
 30
0.0
  0
VERTEX
  5
3A9
330
373
100
AcDbEntity
  8
CSLAYER1
  6
Continuous
 62
     7
100
AcDbVertex
100
AcDb2dVertex
 10
122.323864
 20
157.38612
 30
0.0
  0
VERTEX
  5
3AA
330
373
100
AcDbEntity
  8
CSLAYER1
  6
Continuous
 62
     7
100
AcDbVertex
100
AcDb2dVertex
 10
122.407225
 20
157.354409
 30
0.0
  0
SEQEND
  5
3AB
330
373
100
AcDbEntity
  8
CSLAYER1
 62
     7
  0
INSERT
  5
3AC
330
6F
100
AcDbEntity
  8
CSLAYER1
100
AcDbBlockReference
  2
BLKF0000
 10
0.0
 20
0.0
 30
0.0
  0
INSERT
  5
3AD
330
6F
100
AcDbEntity
  8
CSLAYER1
100
AcDbBlockReference
  2
BLKF0001
 10
0.0
 20
0.0
 30
0.0
  0
POLYLINE
  5
3AE
330
6F
100
AcDbEntity
  8
CSLAYER1
  6
Continuous
 62
     7
100
AcDb2dPolyline
 66
     1
 10
0.0
 20
0.0
 30
0.0
  0
VERTEX
  5
3AF
330
3AE
100
AcDbEntity
  8
CSLAYER1
  6
Continuous
 62
     7
100
AcDbVertex
100
AcDb2dVertex
 10
148.737151
 20
157.920481
 30
0.0
  0
VERTEX
  5
3B0
330
3AE
100
AcDbEntity
  8
CSLAYER1
  6
Continuous
 62
     7
100
AcDbVertex
100
AcDb2dVertex
 10
148.656511
 20
158.018698
 30
0.0
  0
VERTEX
  5
3B1
330
3AE
100
AcDbEntity
  8
CSLAYER1
  6
Continuous
 62
     7
100
AcDbVertex
100
AcDb2dVertex
 10
148.602209
 20
158.081014
 30
0.0
  0
VERTEX
  5
3B2
330
3AE
100
AcDbEntity
  8
CSLAYER1
  6
Continuous
 62
     7
100
AcDbVertex
100
AcDb2dVertex
 10
148.547001
 20
158.140226
 30
0.0
  0
VERTEX
  5
3B3
330
3AE
100
AcDbEntity
  8
CSLAYER1
  6
Continuous
 62
     7
100
AcDbVertex
100
AcDb2dVertex
 10
148.490805
 20
158.196052
 30
0.0
  0
VERTEX
  5
3B4
330
3AE
100
AcDbEntity
  8
CSLAYER1
  6
Continuous
 62
     7
100
AcDbVertex
100
AcDb2dVertex
 10
148.433539
 20
158.24821
 30
0.0
  0
VERTEX
  5
3B5
330
3AE
100
AcDbEntity
  8
CSLAYER1
  6
Continuous
 62
     7
100
AcDbVertex
100
AcDb2dVertex
 10
148.375121
 20
158.296419
 30
0.0
  0
VERTEX
  5
3B6
330
3AE
100
AcDbEntity
  8
CSLAYER1
  6
Continuous
 62
     7
100
AcDbVertex
100
AcDb2dVertex
 10
148.315468
 20
158.340395
 30
0.0
  0
VERTEX
  5
3B7
330
3AE
100
AcDbEntity
  8
CSLAYER1
  6
Continuous
 62
     7
100
AcDbVertex
100
AcDb2dVertex
 10
148.254497
 20
158.379858
 30
0.0
  0
VERTEX
  5
3B8
330
3AE
100
AcDbEntity
  8
CSLAYER1
  6
Continuous
 62
     7
100
AcDbVertex
100
AcDb2dVertex
 10
148.192127
 20
158.414524
 30
0.0
  0
VERTEX
  5
3B9
330
3AE
100
AcDbEntity
  8
CSLAYER1
  6
Continuous
 62
     7
100
AcDbVertex
100
AcDb2dVertex
 10
148.128275
 20
158.444112
 30
0.0
  0
VERTEX
  5
3BA
330
3AE
100
AcDbEntity
  8
CSLAYER1
  6
Continuous
 62
     7
100
AcDbVertex
100
AcDb2dVertex
 10
148.062859
 20
158.468339
 30
0.0
  0
VERTEX
  5
3BB
330
3AE
100
AcDbEntity
  8
CSLAYER1
  6
Continuous
 62
     7
100
AcDbVertex
100
AcDb2dVertex
 10
147.995797
 20
158.486923
 30
0.0
  0
VERTEX
  5
3BC
330
3AE
100
AcDbEntity
  8
CSLAYER1
  6
Continuous
 62
     7
100
AcDbVertex
100
AcDb2dVertex
 10
147.932177
 20
158.498938
 30
0.0
  0
VERTEX
  5
3BD
330
3AE
100
AcDbEntity
  8
CSLAYER1
  6
Continuous
 62
     7
100
AcDbVertex
100
AcDb2dVertex
 10
147.86717
 20
158.5061409999999
 30
0.0
  0
VERTEX
  5
3BE
330
3AE
100
AcDbEntity
  8
CSLAYER1
  6
Continuous
 62
     7
100
AcDbVertex
100
AcDb2dVertex
 10
147.80087
 20
158.508801
 30
0.0
  0
VERTEX
  5
3BF
330
3AE
100
AcDbEntity
  8
CSLAYER1
  6
Continuous
 62
     7
100
AcDbVertex
100
AcDb2dVertex
 10
147.733372
 20
158.507188
 30
0.0
  0
VERTEX
  5
3C0
330
3AE
100
AcDbEntity
  8
CSLAYER1
  6
Continuous
 62
     7
100
AcDbVertex
100
AcDb2dVertex
 10
147.664772
 20
158.501571
 30
0.0
  0
VERTEX
  5
3C1
330
3AE
100
AcDbEntity
  8
CSLAYER1
  6
Continuous
 62
     7
100
AcDbVertex
100
AcDb2dVertex
 10
147.595164
 20
158.492219
 30
0.0
  0
VERTEX
  5
3C2
330
3AE
100
AcDbEntity
  8
CSLAYER1
  6
Continuous
 62
     7
100
AcDbVertex
100
AcDb2dVertex
 10
147.524643
 20
158.479401
 30
0.0
  0
VERTEX
  5
3C3
330
3AE
100
AcDbEntity
  8
CSLAYER1
  6
Continuous
 62
     7
100
AcDbVertex
100
AcDb2dVertex
 10
147.453305
 20
158.463387
 30
0.0
  0
VERTEX
  5
3C4
330
3AE
100
AcDbEntity
  8
CSLAYER1
  6
Continuous
 62
     7
100
AcDbVertex
100
AcDb2dVertex
 10
147.381244
 20
158.444447
 30
0.0
  0
VERTEX
  5
3C5
330
3AE
100
AcDbEntity
  8
CSLAYER1
  6
Continuous
 62
     7
100
AcDbVertex
100
AcDb2dVertex
 10
147.308555
 20
158.422849
 30
0.0
  0
VERTEX
  5
3C6
330
3AE
100
AcDbEntity
  8
CSLAYER1
  6
Continuous
 62
     7
100
AcDbVertex
100
AcDb2dVertex
 10
147.235334
 20
158.398864
 30
0.0
  0
VERTEX
  5
3C7
330
3AE
100
AcDbEntity
  8
CSLAYER1
  6
Continuous
 62
     7
100
AcDbVertex
100
AcDb2dVertex
 10
147.161675
 20
158.372759
 30
0.0
  0
VERTEX
  5
3C8
330
3AE
100
AcDbEntity
  8
CSLAYER1
  6
Continuous
 62
     7
100
AcDbVertex
100
AcDb2dVertex
 10
147.087674
 20
158.344806
 30
0.0
  0
VERTEX
  5
3C9
330
3AE
100
AcDbEntity
  8
CSLAYER1
  6
Continuous
 62
     7
100
AcDbVertex
100
AcDb2dVertex
 10
147.013426
 20
158.315272
 30
0.0
  0
VERTEX
  5
3CA
330
3AE
100
AcDbEntity
  8
CSLAYER1
  6
Continuous
 62
     7
100
AcDbVertex
100
AcDb2dVertex
 10
146.939024
 20
158.284428
 30
0.0
  0
VERTEX
  5
3CB
330
3AE
100
AcDbEntity
  8
CSLAYER1
  6
Continuous
 62
     7
100
AcDbVertex
100
AcDb2dVertex
 10
146.864566
 20
158.252542
 30
0.0
  0
VERTEX
  5
3CC
330
3AE
100
AcDbEntity
  8
CSLAYER1
  6
Continuous
 62
     7
100
AcDbVertex
100
AcDb2dVertex
 10
146.790144
 20
158.219885
 30
0.0
  0
VERTEX
  5
3CD
330
3AE
100
AcDbEntity
  8
CSLAYER1
  6
Continuous
 62
     7
100
AcDbVertex
100
AcDb2dVertex
 10
146.715856
 20
158.186725
 30
0.0
  0
VERTEX
  5
3CE
330
3AE
100
AcDbEntity
  8
CSLAYER1
  6
Continuous
 62
     7
100
AcDbVertex
100
AcDb2dVertex
 10
146.641795
 20
158.153332
 30
0.0
  0
VERTEX
  5
3CF
330
3AE
100
AcDbEntity
  8
CSLAYER1
  6
Continuous
 62
     7
100
AcDbVertex
100
AcDb2dVertex
 10
146.568056
 20
158.119975
 30
0.0
  0
VERTEX
  5
3D0
330
3AE
100
AcDbEntity
  8
CSLAYER1
  6
Continuous
 62
     7
100
AcDbVertex
100
AcDb2dVertex
 10
146.494735
 20
158.086923
 30
0.0
  0
VERTEX
  5
3D1
330
3AE
100
AcDbEntity
  8
CSLAYER1
  6
Continuous
 62
     7
100
AcDbVertex
100
AcDb2dVertex
 10
146.403276
 20
158.046131
 30
0.0
  0
VERTEX
  5
3D2
330
3AE
100
AcDbEntity
  8
CSLAYER1
  6
Continuous
 62
     7
100
AcDbVertex
100
AcDb2dVertex
 10
146.312589
 20
158.006204
 30
0.0
  0
VERTEX
  5
3D3
330
3AE
100
AcDbEntity
  8
CSLAYER1
  6
Continuous
 62
     7
100
AcDbVertex
100
AcDb2dVertex
 10
146.222634
 20
157.967099
 30
0.0
  0
VERTEX
  5
3D4
330
3AE
100
AcDbEntity
  8
CSLAYER1
  6
Continuous
 62
     7
100
AcDbVertex
100
AcDb2dVertex
 10
146.133373
 20
157.928772
 30
0.0
  0
VERTEX
  5
3D5
330
3AE
100
AcDbEntity
  8
CSLAYER1
  6
Continuous
 62
     7
100
AcDbVertex
100
AcDb2dVertex
 10
146.044768
 20
157.89118
 30
0.0
  0
VERTEX
  5
3D6
330
3AE
100
AcDbEntity
  8
CSLAYER1
  6
Continuous
 62
     7
100
AcDbVertex
100
AcDb2dVertex
 10
145.95678
 20
157.854281
 30
0.0
  0
VERTEX
  5
3D7
330
3AE
100
AcDbEntity
  8
CSLAYER1
  6
Continuous
 62
     7
100
AcDbVertex
100
AcDb2dVertex
 10
145.86937
 20
157.81803
 30
0.0
  0
VERTEX
  5
3D8
330
3AE
100
AcDbEntity
  8
CSLAYER1
  6
Continuous
 62
     7
100
AcDbVertex
100
AcDb2dVertex
 10
145.7825
 20
157.782384
 30
0.0
  0
VERTEX
  5
3D9
330
3AE
100
AcDbEntity
  8
CSLAYER1
  6
Continuous
 62
     7
100
AcDbVertex
100
AcDb2dVertex
 10
145.696131
 20
157.747301
 30
0.0
  0
VERTEX
  5
3DA
330
3AE
100
AcDbEntity
  8
CSLAYER1
  6
Continuous
 62
     7
100
AcDbVertex
100
AcDb2dVertex
 10
145.610226
 20
157.712736
 30
0.0
  0
VERTEX
  5
3DB
330
3AE
100
AcDbEntity
  8
CSLAYER1
  6
Continuous
 62
     7
100
AcDbVertex
100
AcDb2dVertex
 10
145.524744
 20
157.678647
 30
0.0
  0
VERTEX
  5
3DC
330
3AE
100
AcDbEntity
  8
CSLAYER1
  6
Continuous
 62
     7
100
AcDbVertex
100
AcDb2dVertex
 10
145.439648
 20
157.644991
 30
0.0
  0
VERTEX
  5
3DD
330
3AE
100
AcDbEntity
  8
CSLAYER1
  6
Continuous
 62
     7
100
AcDbVertex
100
AcDb2dVertex
 10
145.3548989999999
 20
157.611724
 30
0.0
  0
VERTEX
  5
3DE
330
3AE
100
AcDbEntity
  8
CSLAYER1
  6
Continuous
 62
     7
100
AcDbVertex
100
AcDb2dVertex
 10
145.270458
 20
157.578803
 30
0.0
  0
VERTEX
  5
3DF
330
3AE
100
AcDbEntity
  8
CSLAYER1
  6
Continuous
 62
     7
100
AcDbVertex
100
AcDb2dVertex
 10
145.186288
 20
157.546184
 30
0.0
  0
VERTEX
  5
3E0
330
3AE
100
AcDbEntity
  8
CSLAYER1
  6
Continuous
 62
     7
100
AcDbVertex
100
AcDb2dVertex
 10
145.102349
 20
157.513825
 30
0.0
  0
VERTEX
  5
3E1
330
3AE
100
AcDbEntity
  8
CSLAYER1
  6
Continuous
 62
     7
100
AcDbVertex
100
AcDb2dVertex
 10
145.018602
 20
157.481683
 30
0.0
  0
VERTEX
  5
3E2
330
3AE
100
AcDbEntity
  8
CSLAYER1
  6
Continuous
 62
     7
100
AcDbVertex
100
AcDb2dVertex
 10
144.93501
 20
157.449713
 30
0.0
  0
VERTEX
  5
3E3
330
3AE
100
AcDbEntity
  8
CSLAYER1
  6
Continuous
 62
     7
100
AcDbVertex
100
AcDb2dVertex
 10
144.851534
 20
157.417873
 30
0.0
  0
VERTEX
  5
3E4
330
3AE
100
AcDbEntity
  8
CSLAYER1
  6
Continuous
 62
     7
100
AcDbVertex
100
AcDb2dVertex
 10
144.768134
 20
157.38612
 30
0.0
  0
VERTEX
  5
3E5
330
3AE
100
AcDbEntity
  8
CSLAYER1
  6
Continuous
 62
     7
100
AcDbVertex
100
AcDb2dVertex
 10
144.684774
 20
157.354409
 30
0.0
  0
SEQEND
  5
3E6
330
3AE
100
AcDbEntity
  8
CSLAYER1
 62
     7
  0
POLYLINE
  5
3E7
330
6F
100
AcDbEntity
  8
CSLAYER1
  6
Continuous
 62
     7
100
AcDb2dPolyline
 66
     1
 10
0.0
 20
0.0
 30
0.0
  0
VERTEX
  5
3E8
330
3E7
100
AcDbEntity
  8
CSLAYER1
  6
Continuous
 62
     7
100
AcDbVertex
100
AcDb2dVertex
 10
190.105839
 20
157.286923
 30
0.0
  0
VERTEX
  5
3E9
330
3E7
100
AcDbEntity
  8
CSLAYER1
  6
Continuous
 62
     7
100
AcDbVertex
100
AcDb2dVertex
 10
190.155613
 20
157.364756
 30
0.0
  0
VERTEX
  5
3EA
330
3E7
100
AcDbEntity
  8
CSLAYER1
  6
Continuous
 62
     7
100
AcDbVertex
100
AcDb2dVertex
 10
190.20547
 20
157.442306
 30
0.0
  0
VERTEX
  5
3EB
330
3E7
100
AcDbEntity
  8
CSLAYER1
  6
Continuous
 62
     7
100
AcDbVertex
100
AcDb2dVertex
 10
190.255492
 20
157.519293
 30
0.0
  0
VERTEX
  5
3EC
330
3E7
100
AcDbEntity
  8
CSLAYER1
  6
Continuous
 62
     7
100
AcDbVertex
100
AcDb2dVertex
 10
190.30576
 20
157.595433
 30
0.0
  0
VERTEX
  5
3ED
330
3E7
100
AcDbEntity
  8
CSLAYER1
  6
Continuous
 62
     7
100
AcDbVertex
100
AcDb2dVertex
 10
190.356358
 20
157.670444
 30
0.0
  0
VERTEX
  5
3EE
330
3E7
100
AcDbEntity
  8
CSLAYER1
  6
Continuous
 62
     7
100
AcDbVertex
100
AcDb2dVertex
 10
190.407368
 20
157.744045
 30
0.0
  0
VERTEX
  5
3EF
330
3E7
100
AcDbEntity
  8
CSLAYER1
  6
Continuous
 62
     7
100
AcDbVertex
100
AcDb2dVertex
 10
190.458871
 20
157.815953
 30
0.0
  0
VERTEX
  5
3F0
330
3E7
100
AcDbEntity
  8
CSLAYER1
  6
Continuous
 62
     7
100
AcDbVertex
100
AcDb2dVertex
 10
190.51095
 20
157.885886
 30
0.0
  0
VERTEX
  5
3F1
330
3E7
100
AcDbEntity
  8
CSLAYER1
  6
Continuous
 62
     7
100
AcDbVertex
100
AcDb2dVertex
 10
190.563689
 20
157.953562
 30
0.0
  0
VERTEX
  5
3F2
330
3E7
100
AcDbEntity
  8
CSLAYER1
  6
Continuous
 62
     7
100
AcDbVertex
100
AcDb2dVertex
 10
190.617168
 20
158.018698
 30
0.0
  0
VERTEX
  5
3F3
330
3E7
100
AcDbEntity
  8
CSLAYER1
  6
Continuous
 62
     7
100
AcDbVertex
100
AcDb2dVertex
 10
190.67147
 20
158.081014
 30
0.0
  0
VERTEX
  5
3F4
330
3E7
100
AcDbEntity
  8
CSLAYER1
  6
Continuous
 62
     7
100
AcDbVertex
100
AcDb2dVertex
 10
190.726678
 20
158.140226
 30
0.0
  0
VERTEX
  5
3F5
330
3E7
100
AcDbEntity
  8
CSLAYER1
  6
Continuous
 62
     7
100
AcDbVertex
100
AcDb2dVertex
 10
190.782874
 20
158.196052
 30
0.0
  0
VERTEX
  5
3F6
330
3E7
100
AcDbEntity
  8
CSLAYER1
  6
Continuous
 62
     7
100
AcDbVertex
100
AcDb2dVertex
 10
190.84014
 20
158.24821
 30
0.0
  0
VERTEX
  5
3F7
330
3E7
100
AcDbEntity
  8
CSLAYER1
  6
Continuous
 62
     7
100
AcDbVertex
100
AcDb2dVertex
 10
190.898558
 20
158.296419
 30
0.0
  0
VERTEX
  5
3F8
330
3E7
100
AcDbEntity
  8
CSLAYER1
  6
Continuous
 62
     7
100
AcDbVertex
100
AcDb2dVertex
 10
190.958211
 20
158.340395
 30
0.0
  0
VERTEX
  5
3F9
330
3E7
100
AcDbEntity
  8
CSLAYER1
  6
Continuous
 62
     7
100
AcDbVertex
100
AcDb2dVertex
 10
191.019182
 20
158.379858
 30
0.0
  0
VERTEX
  5
3FA
330
3E7
100
AcDbEntity
  8
CSLAYER1
  6
Continuous
 62
     7
100
AcDbVertex
100
AcDb2dVertex
 10
191.081552
 20
158.414524
 30
0.0
  0
VERTEX
  5
3FB
330
3E7
100
AcDbEntity
  8
CSLAYER1
  6
Continuous
 62
     7
100
AcDbVertex
100
AcDb2dVertex
 10
191.145404
 20
158.444112
 30
0.0
  0
VERTEX
  5
3FC
330
3E7
100
AcDbEntity
  8
CSLAYER1
  6
Continuous
 62
     7
100
AcDbVertex
100
AcDb2dVertex
 10
191.21082
 20
158.468339
 30
0.0
  0
VERTEX
  5
3FD
330
3E7
100
AcDbEntity
  8
CSLAYER1
  6
Continuous
 62
     7
100
AcDbVertex
100
AcDb2dVertex
 10
191.277882
 20
158.486923
 30
0.0
  0
VERTEX
  5
3FE
330
3E7
100
AcDbEntity
  8
CSLAYER1
  6
Continuous
 62
     7
100
AcDbVertex
100
AcDb2dVertex
 10
191.341502
 20
158.498938
 30
0.0
  0
VERTEX
  5
3FF
330
3E7
100
AcDbEntity
  8
CSLAYER1
  6
Continuous
 62
     7
100
AcDbVertex
100
AcDb2dVertex
 10
191.406509
 20
158.5061409999999
 30
0.0
  0
VERTEX
  5
400
330
3E7
100
AcDbEntity
  8
CSLAYER1
  6
Continuous
 62
     7
100
AcDbVertex
100
AcDb2dVertex
 10
191.472809
 20
158.508801
 30
0.0
  0
VERTEX
  5
401
330
3E7
100
AcDbEntity
  8
CSLAYER1
  6
Continuous
 62
     7
100
AcDbVertex
100
AcDb2dVertex
 10
191.540307
 20
158.507188
 30
0.0
  0
VERTEX
  5
402
330
3E7
100
AcDbEntity
  8
CSLAYER1
  6
Continuous
 62
     7
100
AcDbVertex
100
AcDb2dVertex
 10
191.608907
 20
158.501571
 30
0.0
  0
VERTEX
  5
403
330
3E7
100
AcDbEntity
  8
CSLAYER1
  6
Continuous
 62
     7
100
AcDbVertex
100
AcDb2dVertex
 10
191.678515
 20
158.492219
 30
0.0
  0
VERTEX
  5
404
330
3E7
100
AcDbEntity
  8
CSLAYER1
  6
Continuous
 62
     7
100
AcDbVertex
100
AcDb2dVertex
 10
191.749036
 20
158.479401
 30
0.0
  0
VERTEX
  5
405
330
3E7
100
AcDbEntity
  8
CSLAYER1
  6
Continuous
 62
     7
100
AcDbVertex
100
AcDb2dVertex
 10
191.820374
 20
158.463387
 30
0.0
  0
VERTEX
  5
406
330
3E7
100
AcDbEntity
  8
CSLAYER1
  6
Continuous
 62
     7
100
AcDbVertex
100
AcDb2dVertex
 10
191.892435
 20
158.444447
 30
0.0
  0
VERTEX
  5
407
330
3E7
100
AcDbEntity
  8
CSLAYER1
  6
Continuous
 62
     7
100
AcDbVertex
100
AcDb2dVertex
 10
191.965124
 20
158.422849
 30
0.0
  0
VERTEX
  5
408
330
3E7
100
AcDbEntity
  8
CSLAYER1
  6
Continuous
 62
     7
100
AcDbVertex
100
AcDb2dVertex
 10
192.038345
 20
158.398864
 30
0.0
  0
VERTEX
  5
409
330
3E7
100
AcDbEntity
  8
CSLAYER1
  6
Continuous
 62
     7
100
AcDbVertex
100
AcDb2dVertex
 10
192.112004
 20
158.372759
 30
0.0
  0
VERTEX
  5
40A
330
3E7
100
AcDbEntity
  8
CSLAYER1
  6
Continuous
 62
     7
100
AcDbVertex
100
AcDb2dVertex
 10
192.186005
 20
158.344806
 30
0.0
  0
VERTEX
  5
40B
330
3E7
100
AcDbEntity
  8
CSLAYER1
  6
Continuous
 62
     7
100
AcDbVertex
100
AcDb2dVertex
 10
192.260253
 20
158.315272
 30
0.0
  0
VERTEX
  5
40C
330
3E7
100
AcDbEntity
  8
CSLAYER1
  6
Continuous
 62
     7
100
AcDbVertex
100
AcDb2dVertex
 10
192.334655
 20
158.284428
 30
0.0
  0
VERTEX
  5
40D
330
3E7
100
AcDbEntity
  8
CSLAYER1
  6
Continuous
 62
     7
100
AcDbVertex
100
AcDb2dVertex
 10
192.409113
 20
158.252542
 30
0.0
  0
VERTEX
  5
40E
330
3E7
100
AcDbEntity
  8
CSLAYER1
  6
Continuous
 62
     7
100
AcDbVertex
100
AcDb2dVertex
 10
192.483535
 20
158.219885
 30
0.0
  0
VERTEX
  5
40F
330
3E7
100
AcDbEntity
  8
CSLAYER1
  6
Continuous
 62
     7
100
AcDbVertex
100
AcDb2dVertex
 10
192.557823
 20
158.186725
 30
0.0
  0
VERTEX
  5
410
330
3E7
100
AcDbEntity
  8
CSLAYER1
  6
Continuous
 62
     7
100
AcDbVertex
100
AcDb2dVertex
 10
192.631884
 20
158.153332
 30
0.0
  0
VERTEX
  5
411
330
3E7
100
AcDbEntity
  8
CSLAYER1
  6
Continuous
 62
     7
100
AcDbVertex
100
AcDb2dVertex
 10
192.705623
 20
158.119975
 30
0.0
  0
VERTEX
  5
412
330
3E7
100
AcDbEntity
  8
CSLAYER1
  6
Continuous
 62
     7
100
AcDbVertex
100
AcDb2dVertex
 10
192.778944
 20
158.086923
 30
0.0
  0
VERTEX
  5
413
330
3E7
100
AcDbEntity
  8
CSLAYER1
  6
Continuous
 62
     7
100
AcDbVertex
100
AcDb2dVertex
 10
192.870403
 20
158.046131
 30
0.0
  0
VERTEX
  5
414
330
3E7
100
AcDbEntity
  8
CSLAYER1
  6
Continuous
 62
     7
100
AcDbVertex
100
AcDb2dVertex
 10
192.96109
 20
158.006204
 30
0.0
  0
VERTEX
  5
415
330
3E7
100
AcDbEntity
  8
CSLAYER1
  6
Continuous
 62
     7
100
AcDbVertex
100
AcDb2dVertex
 10
193.051045
 20
157.967099
 30
0.0
  0
VERTEX
  5
416
330
3E7
100
AcDbEntity
  8
CSLAYER1
  6
Continuous
 62
     7
100
AcDbVertex
100
AcDb2dVertex
 10
193.140306
 20
157.928772
 30
0.0
  0
VERTEX
  5
417
330
3E7
100
AcDbEntity
  8
CSLAYER1
  6
Continuous
 62
     7
100
AcDbVertex
100
AcDb2dVertex
 10
193.228911
 20
157.89118
 30
0.0
  0
VERTEX
  5
418
330
3E7
100
AcDbEntity
  8
CSLAYER1
  6
Continuous
 62
     7
100
AcDbVertex
100
AcDb2dVertex
 10
193.316899
 20
157.854281
 30
0.0
  0
VERTEX
  5
419
330
3E7
100
AcDbEntity
  8
CSLAYER1
  6
Continuous
 62
     7
100
AcDbVertex
100
AcDb2dVertex
 10
193.404309
 20
157.81803
 30
0.0
  0
VERTEX
  5
41A
330
3E7
100
AcDbEntity
  8
CSLAYER1
  6
Continuous
 62
     7
100
AcDbVertex
100
AcDb2dVertex
 10
193.491179
 20
157.782384
 30
0.0
  0
VERTEX
  5
41B
330
3E7
100
AcDbEntity
  8
CSLAYER1
  6
Continuous
 62
     7
100
AcDbVertex
100
AcDb2dVertex
 10
193.577548
 20
157.747301
 30
0.0
  0
VERTEX
  5
41C
330
3E7
100
AcDbEntity
  8
CSLAYER1
  6
Continuous
 62
     7
100
AcDbVertex
100
AcDb2dVertex
 10
193.663453
 20
157.712736
 30
0.0
  0
VERTEX
  5
41D
330
3E7
100
AcDbEntity
  8
CSLAYER1
  6
Continuous
 62
     7
100
AcDbVertex
100
AcDb2dVertex
 10
193.748935
 20
157.678647
 30
0.0
  0
VERTEX
  5
41E
330
3E7
100
AcDbEntity
  8
CSLAYER1
  6
Continuous
 62
     7
100
AcDbVertex
100
AcDb2dVertex
 10
193.834031
 20
157.644991
 30
0.0
  0
VERTEX
  5
41F
330
3E7
100
AcDbEntity
  8
CSLAYER1
  6
Continuous
 62
     7
100
AcDbVertex
100
AcDb2dVertex
 10
193.91878
 20
157.611724
 30
0.0
  0
VERTEX
  5
420
330
3E7
100
AcDbEntity
  8
CSLAYER1
  6
Continuous
 62
     7
100
AcDbVertex
100
AcDb2dVertex
 10
194.003221
 20
157.578803
 30
0.0
  0
VERTEX
  5
421
330
3E7
100
AcDbEntity
  8
CSLAYER1
  6
Continuous
 62
     7
100
AcDbVertex
100
AcDb2dVertex
 10
194.087391
 20
157.546184
 30
0.0
  0
VERTEX
  5
422
330
3E7
100
AcDbEntity
  8
CSLAYER1
  6
Continuous
 62
     7
100
AcDbVertex
100
AcDb2dVertex
 10
194.17133
 20
157.513825
 30
0.0
  0
VERTEX
  5
423
330
3E7
100
AcDbEntity
  8
CSLAYER1
  6
Continuous
 62
     7
100
AcDbVertex
100
AcDb2dVertex
 10
194.255077
 20
157.481683
 30
0.0
  0
VERTEX
  5
424
330
3E7
100
AcDbEntity
  8
CSLAYER1
  6
Continuous
 62
     7
100
AcDbVertex
100
AcDb2dVertex
 10
194.338669
 20
157.449713
 30
0.0
  0
VERTEX
  5
425
330
3E7
100
AcDbEntity
  8
CSLAYER1
  6
Continuous
 62
     7
100
AcDbVertex
100
AcDb2dVertex
 10
194.422145
 20
157.417873
 30
0.0
  0
VERTEX
  5
426
330
3E7
100
AcDbEntity
  8
CSLAYER1
  6
Continuous
 62
     7
100
AcDbVertex
100
AcDb2dVertex
 10
194.505545
 20
157.38612
 30
0.0
  0
VERTEX
  5
427
330
3E7
100
AcDbEntity
  8
CSLAYER1
  6
Continuous
 62
     7
100
AcDbVertex
100
AcDb2dVertex
 10
194.588905
 20
157.354409
 30
0.0
  0
SEQEND
  5
428
330
3E7
100
AcDbEntity
  8
CSLAYER1
 62
     7
  0
POLYLINE
  5
429
330
6F
100
AcDbEntity
  8
CSLAYER1
  6
Continuous
 62
     7
100
AcDb2dPolyline
 66
     1
 10
0.0
 20
0.0
 30
0.0
  0
VERTEX
  5
42A
330
429
100
AcDbEntity
  8
CSLAYER1
  6
Continuous
 62
     7
100
AcDbVertex
100
AcDb2dVertex
 10
190.536528
 20
157.920481
 30
0.0
  0
VERTEX
  5
42B
330
429
100
AcDbEntity
  8
CSLAYER1
  6
Continuous
 62
     7
100
AcDbVertex
100
AcDb2dVertex
 10
190.617168
 20
158.018698
 30
0.0
  0
VERTEX
  5
42C
330
429
100
AcDbEntity
  8
CSLAYER1
  6
Continuous
 62
     7
100
AcDbVertex
100
AcDb2dVertex
 10
190.67147
 20
158.081014
 30
0.0
  0
VERTEX
  5
42D
330
429
100
AcDbEntity
  8
CSLAYER1
  6
Continuous
 62
     7
100
AcDbVertex
100
AcDb2dVertex
 10
190.726678
 20
158.140226
 30
0.0
  0
VERTEX
  5
42E
330
429
100
AcDbEntity
  8
CSLAYER1
  6
Continuous
 62
     7
100
AcDbVertex
100
AcDb2dVertex
 10
190.782874
 20
158.196052
 30
0.0
  0
VERTEX
  5
42F
330
429
100
AcDbEntity
  8
CSLAYER1
  6
Continuous
 62
     7
100
AcDbVertex
100
AcDb2dVertex
 10
190.84014
 20
158.24821
 30
0.0
  0
VERTEX
  5
430
330
429
100
AcDbEntity
  8
CSLAYER1
  6
Continuous
 62
     7
100
AcDbVertex
100
AcDb2dVertex
 10
190.898558
 20
158.296419
 30
0.0
  0
VERTEX
  5
431
330
429
100
AcDbEntity
  8
CSLAYER1
  6
Continuous
 62
     7
100
AcDbVertex
100
AcDb2dVertex
 10
190.958211
 20
158.340395
 30
0.0
  0
VERTEX
  5
432
330
429
100
AcDbEntity
  8
CSLAYER1
  6
Continuous
 62
     7
100
AcDbVertex
100
AcDb2dVertex
 10
191.019182
 20
158.379858
 30
0.0
  0
VERTEX
  5
433
330
429
100
AcDbEntity
  8
CSLAYER1
  6
Continuous
 62
     7
100
AcDbVertex
100
AcDb2dVertex
 10
191.081552
 20
158.414524
 30
0.0
  0
VERTEX
  5
434
330
429
100
AcDbEntity
  8
CSLAYER1
  6
Continuous
 62
     7
100
AcDbVertex
100
AcDb2dVertex
 10
191.145404
 20
158.444112
 30
0.0
  0
VERTEX
  5
435
330
429
100
AcDbEntity
  8
CSLAYER1
  6
Continuous
 62
     7
100
AcDbVertex
100
AcDb2dVertex
 10
191.21082
 20
158.468339
 30
0.0
  0
VERTEX
  5
436
330
429
100
AcDbEntity
  8
CSLAYER1
  6
Continuous
 62
     7
100
AcDbVertex
100
AcDb2dVertex
 10
191.277882
 20
158.486923
 30
0.0
  0
VERTEX
  5
437
330
429
100
AcDbEntity
  8
CSLAYER1
  6
Continuous
 62
     7
100
AcDbVertex
100
AcDb2dVertex
 10
191.341502
 20
158.498938
 30
0.0
  0
VERTEX
  5
438
330
429
100
AcDbEntity
  8
CSLAYER1
  6
Continuous
 62
     7
100
AcDbVertex
100
AcDb2dVertex
 10
191.406509
 20
158.5061409999999
 30
0.0
  0
VERTEX
  5
439
330
429
100
AcDbEntity
  8
CSLAYER1
  6
Continuous
 62
     7
100
AcDbVertex
100
AcDb2dVertex
 10
191.472809
 20
158.508801
 30
0.0
  0
VERTEX
  5
43A
330
429
100
AcDbEntity
  8
CSLAYER1
  6
Continuous
 62
     7
100
AcDbVertex
100
AcDb2dVertex
 10
191.540307
 20
158.507188
 30
0.0
  0
VERTEX
  5
43B
330
429
100
AcDbEntity
  8
CSLAYER1
  6
Continuous
 62
     7
100
AcDbVertex
100
AcDb2dVertex
 10
191.608907
 20
158.501571
 30
0.0
  0
VERTEX
  5
43C
330
429
100
AcDbEntity
  8
CSLAYER1
  6
Continuous
 62
     7
100
AcDbVertex
100
AcDb2dVertex
 10
191.678515
 20
158.492219
 30
0.0
  0
VERTEX
  5
43D
330
429
100
AcDbEntity
  8
CSLAYER1
  6
Continuous
 62
     7
100
AcDbVertex
100
AcDb2dVertex
 10
191.749036
 20
158.479401
 30
0.0
  0
VERTEX
  5
43E
330
429
100
AcDbEntity
  8
CSLAYER1
  6
Continuous
 62
     7
100
AcDbVertex
100
AcDb2dVertex
 10
191.820374
 20
158.463387
 30
0.0
  0
VERTEX
  5
43F
330
429
100
AcDbEntity
  8
CSLAYER1
  6
Continuous
 62
     7
100
AcDbVertex
100
AcDb2dVertex
 10
191.892435
 20
158.444447
 30
0.0
  0
VERTEX
  5
440
330
429
100
AcDbEntity
  8
CSLAYER1
  6
Continuous
 62
     7
100
AcDbVertex
100
AcDb2dVertex
 10
191.965124
 20
158.422849
 30
0.0
  0
VERTEX
  5
441
330
429
100
AcDbEntity
  8
CSLAYER1
  6
Continuous
 62
     7
100
AcDbVertex
100
AcDb2dVertex
 10
192.038345
 20
158.398864
 30
0.0
  0
VERTEX
  5
442
330
429
100
AcDbEntity
  8
CSLAYER1
  6
Continuous
 62
     7
100
AcDbVertex
100
AcDb2dVertex
 10
192.112004
 20
158.372759
 30
0.0
  0
VERTEX
  5
443
330
429
100
AcDbEntity
  8
CSLAYER1
  6
Continuous
 62
     7
100
AcDbVertex
100
AcDb2dVertex
 10
192.186005
 20
158.344806
 30
0.0
  0
VERTEX
  5
444
330
429
100
AcDbEntity
  8
CSLAYER1
  6
Continuous
 62
     7
100
AcDbVertex
100
AcDb2dVertex
 10
192.260253
 20
158.315272
 30
0.0
  0
VERTEX
  5
445
330
429
100
AcDbEntity
  8
CSLAYER1
  6
Continuous
 62
     7
100
AcDbVertex
100
AcDb2dVertex
 10
192.334655
 20
158.284428
 30
0.0
  0
VERTEX
  5
446
330
429
100
AcDbEntity
  8
CSLAYER1
  6
Continuous
 62
     7
100
AcDbVertex
100
AcDb2dVertex
 10
192.409113
 20
158.252542
 30
0.0
  0
VERTEX
  5
447
330
429
100
AcDbEntity
  8
CSLAYER1
  6
Continuous
 62
     7
100
AcDbVertex
100
AcDb2dVertex
 10
192.483535
 20
158.219885
 30
0.0
  0
VERTEX
  5
448
330
429
100
AcDbEntity
  8
CSLAYER1
  6
Continuous
 62
     7
100
AcDbVertex
100
AcDb2dVertex
 10
192.557823
 20
158.186725
 30
0.0
  0
VERTEX
  5
449
330
429
100
AcDbEntity
  8
CSLAYER1
  6
Continuous
 62
     7
100
AcDbVertex
100
AcDb2dVertex
 10
192.631884
 20
158.153332
 30
0.0
  0
VERTEX
  5
44A
330
429
100
AcDbEntity
  8
CSLAYER1
  6
Continuous
 62
     7
100
AcDbVertex
100
AcDb2dVertex
 10
192.705623
 20
158.119975
 30
0.0
  0
VERTEX
  5
44B
330
429
100
AcDbEntity
  8
CSLAYER1
  6
Continuous
 62
     7
100
AcDbVertex
100
AcDb2dVertex
 10
192.778944
 20
158.086923
 30
0.0
  0
VERTEX
  5
44C
330
429
100
AcDbEntity
  8
CSLAYER1
  6
Continuous
 62
     7
100
AcDbVertex
100
AcDb2dVertex
 10
192.870403
 20
158.046131
 30
0.0
  0
VERTEX
  5
44D
330
429
100
AcDbEntity
  8
CSLAYER1
  6
Continuous
 62
     7
100
AcDbVertex
100
AcDb2dVertex
 10
192.96109
 20
158.006204
 30
0.0
  0
VERTEX
  5
44E
330
429
100
AcDbEntity
  8
CSLAYER1
  6
Continuous
 62
     7
100
AcDbVertex
100
AcDb2dVertex
 10
193.051045
 20
157.967099
 30
0.0
  0
VERTEX
  5
44F
330
429
100
AcDbEntity
  8
CSLAYER1
  6
Continuous
 62
     7
100
AcDbVertex
100
AcDb2dVertex
 10
193.140306
 20
157.928772
 30
0.0
  0
VERTEX
  5
450
330
429
100
AcDbEntity
  8
CSLAYER1
  6
Continuous
 62
     7
100
AcDbVertex
100
AcDb2dVertex
 10
193.228911
 20
157.89118
 30
0.0
  0
VERTEX
  5
451
330
429
100
AcDbEntity
  8
CSLAYER1
  6
Continuous
 62
     7
100
AcDbVertex
100
AcDb2dVertex
 10
193.316899
 20
157.854281
 30
0.0
  0
VERTEX
  5
452
330
429
100
AcDbEntity
  8
CSLAYER1
  6
Continuous
 62
     7
100
AcDbVertex
100
AcDb2dVertex
 10
193.404309
 20
157.81803
 30
0.0
  0
VERTEX
  5
453
330
429
100
AcDbEntity
  8
CSLAYER1
  6
Continuous
 62
     7
100
AcDbVertex
100
AcDb2dVertex
 10
193.491179
 20
157.782384
 30
0.0
  0
VERTEX
  5
454
330
429
100
AcDbEntity
  8
CSLAYER1
  6
Continuous
 62
     7
100
AcDbVertex
100
AcDb2dVertex
 10
193.577548
 20
157.747301
 30
0.0
  0
VERTEX
  5
455
330
429
100
AcDbEntity
  8
CSLAYER1
  6
Continuous
 62
     7
100
AcDbVertex
100
AcDb2dVertex
 10
193.663453
 20
157.712736
 30
0.0
  0
VERTEX
  5
456
330
429
100
AcDbEntity
  8
CSLAYER1
  6
Continuous
 62
     7
100
AcDbVertex
100
AcDb2dVertex
 10
193.748935
 20
157.678647
 30
0.0
  0
VERTEX
  5
457
330
429
100
AcDbEntity
  8
CSLAYER1
  6
Continuous
 62
     7
100
AcDbVertex
100
AcDb2dVertex
 10
193.834031
 20
157.644991
 30
0.0
  0
VERTEX
  5
458
330
429
100
AcDbEntity
  8
CSLAYER1
  6
Continuous
 62
     7
100
AcDbVertex
100
AcDb2dVertex
 10
193.91878
 20
157.611724
 30
0.0
  0
VERTEX
  5
459
330
429
100
AcDbEntity
  8
CSLAYER1
  6
Continuous
 62
     7
100
AcDbVertex
100
AcDb2dVertex
 10
194.003221
 20
157.578803
 30
0.0
  0
VERTEX
  5
45A
330
429
100
AcDbEntity
  8
CSLAYER1
  6
Continuous
 62
     7
100
AcDbVertex
100
AcDb2dVertex
 10
194.087391
 20
157.546184
 30
0.0
  0
VERTEX
  5
45B
330
429
100
AcDbEntity
  8
CSLAYER1
  6
Continuous
 62
     7
100
AcDbVertex
100
AcDb2dVertex
 10
194.17133
 20
157.513825
 30
0.0
  0
VERTEX
  5
45C
330
429
100
AcDbEntity
  8
CSLAYER1
  6
Continuous
 62
     7
100
AcDbVertex
100
AcDb2dVertex
 10
194.255077
 20
157.481683
 30
0.0
  0
VERTEX
  5
45D
330
429
100
AcDbEntity
  8
CSLAYER1
  6
Continuous
 62
     7
100
AcDbVertex
100
AcDb2dVertex
 10
194.338669
 20
157.449713
 30
0.0
  0
VERTEX
  5
45E
330
429
100
AcDbEntity
  8
CSLAYER1
  6
Continuous
 62
     7
100
AcDbVertex
100
AcDb2dVertex
 10
194.422145
 20
157.417873
 30
0.0
  0
VERTEX
  5
45F
330
429
100
AcDbEntity
  8
CSLAYER1
  6
Continuous
 62
     7
100
AcDbVertex
100
AcDb2dVertex
 10
194.505545
 20
157.38612
 30
0.0
  0
VERTEX
  5
460
330
429
100
AcDbEntity
  8
CSLAYER1
  6
Continuous
 62
     7
100
AcDbVertex
100
AcDb2dVertex
 10
194.588905
 20
157.354409
 30
0.0
  0
SEQEND
  5
461
330
429
100
AcDbEntity
  8
CSLAYER1
 62
     7
  0
ENDSEC
  0
SECTION
  2
OBJECTS
  0
DICTIONARY
  5
C
330
0
100
AcDbDictionary
281
     1
  3
ACAD_CIP_PREVIOUS_PRODUCT_INFO
350
463
  3
ACAD_COLOR
350
62
  3
ACAD_DETAILVIEWSTYLE
350
69
  3
ACAD_FIELDLIST
350
4D1
  3
ACAD_GROUP
350
D
  3
ACAD_LAYOUT
350
61
  3
ACAD_MATERIAL
350
10
  3
ACAD_MLEADERSTYLE
350
65
  3
ACAD_MLINESTYLE
350
5E
  3
ACAD_PLOTSETTINGS
350
60
  3
ACAD_PLOTSTYLENAME
350
E
  3
ACAD_SCALELIST
350
42
  3
ACAD_SECTIONVIEWSTYLE
350
67
  3
ACAD_TABLESTYLE
350
63
  3
ACAD_VISUALSTYLE
350
29
  3
ACDB_RECOMPOSE_DATA
350
51E
  3
AcDbVariableDictionary
350
512
  3
AcmDictionary
350
48E
  3
AMG
350
464
  3
AMGSNAPSETTINGS
350
4E5
  3
DWGPROPS
350
51F
  0
DICTIONARY
  5
4EC
330
54
100
AcDbDictionary
280
     1
281
     1
  3
ADSK_XREC_LAYER_RECONCILED
360
4ED
  0
DICTIONARY
  5
4EE
330
73
100
AcDbDictionary
280
     1
281
     1
  3
ADSK_XREC_LAYER_RECONCILED
360
4EF
  0
DICTIONARY
  5
4F0
330
7C
100
AcDbDictionary
280
     1
281
     1
  3
ADSK_XREC_LAYER_RECONCILED
360
4F1
  0
DICTIONARY
  5
4F2
330
7D
100
AcDbDictionary
280
     1
281
     1
  3
ADSK_XREC_LAYER_RECONCILED
360
4F3
  0
DICTIONARY
  5
4F4
330
7E
100
AcDbDictionary
280
     1
281
     1
  3
ADSK_XREC_LAYER_RECONCILED
360
4F5
  0
DICTIONARY
  5
4F6
330
7F
100
AcDbDictionary
280
     1
281
     1
  3
ADSK_XREC_LAYER_RECONCILED
360
4F7
  0
DICTIONARY
  5
4F8
330
80
100
AcDbDictionary
280
     1
281
     1
  3
ADSK_XREC_LAYER_RECONCILED
360
4F9
  0
DICTIONARY
  5
4FA
330
81
100
AcDbDictionary
280
     1
281
     1
  3
ADSK_XREC_LAYER_RECONCILED
360
4FB
  0
DICTIONARY
  5
4FC
330
82
100
AcDbDictionary
280
     1
281
     1
  3
ADSK_XREC_LAYER_RECONCILED
360
4FD
  0
DICTIONARY
  5
4FE
330
83
100
AcDbDictionary
280
     1
281
     1
  3
ADSK_XREC_LAYER_RECONCILED
360
4FF
  0
DICTIONARY
  5
500
330
84
100
AcDbDictionary
280
     1
281
     1
  3
ADSK_XREC_LAYER_RECONCILED
360
501
  0
DICTIONARY
  5
502
330
85
100
AcDbDictionary
280
     1
281
     1
  3
ADSK_XREC_LAYER_RECONCILED
360
503
  0
DICTIONARY
  5
504
330
86
100
AcDbDictionary
280
     1
281
     1
  3
ADSK_XREC_LAYER_RECONCILED
360
505
  0
DICTIONARY
  5
506
330
87
100
AcDbDictionary
280
     1
281
     1
  3
ADSK_XREC_LAYER_RECONCILED
360
507
  0
DICTIONARY
  5
508
330
88
100
AcDbDictionary
280
     1
281
     1
  3
ADSK_XREC_LAYER_RECONCILED
360
509
  0
DICTIONARY
  5
50A
330
89
100
AcDbDictionary
280
     1
281
     1
  3
ADSK_XREC_LAYER_RECONCILED
360
50B
  0
DICTIONARY
  5
50C
330
8A
100
AcDbDictionary
280
     1
281
     1
  3
ADSK_XREC_LAYER_RECONCILED
360
50D
  0
DICTIONARY
  5
50E
330
8B
100
AcDbDictionary
280
     1
281
     1
  3
ADSK_XREC_LAYER_RECONCILED
360
50F
  0
DICTIONARY
  5
510
330
1D7
100
AcDbDictionary
280
     1
281
     1
  3
ADSK_XREC_LAYER_RECONCILED
360
511
  0
XRECORD
  5
463
102
{ACAD_REACTORS
330
C
102
}
330
C
100
AcDbXrecord
280
     1
300
AMECH_PP
300
2017
300
86690PDSP_2017_0F
  0
DICTIONARY
  5
62
102
{ACAD_REACTORS
330
C
102
}
330
C
100
AcDbDictionary
281
     1
  0
DICTIONARY
  5
69
102
{ACAD_REACTORS
330
C
102
}
330
C
100
AcDbDictionary
281
     1
  3
Imperial24
350
6A
  0
FIELDLIST
  5
4D1
102
{ACAD_REACTORS
330
C
102
}
330
C
100
AcDbIdSet
 90
        8
330
4CF
330
4D0
330
4D2
330
4D3
330
4D7
330
4D8
330
4D9
330
4DA
100
AcDbFieldList
  0
DICTIONARY
  5
D
102
{ACAD_REACTORS
330
C
102
}
330
C
100
AcDbDictionary
281
     1
  0
DICTIONARY
  5
61
102
{ACAD_REACTORS
330
C
102
}
330
C
100
AcDbDictionary
281
     1
  3
Model
350
72
  3
レイアウト1
350
6E
  0
DICTIONARY
  5
10
102
{ACAD_REACTORS
330
C
102
}
330
C
100
AcDbDictionary
281
     1
  3
ByBlock
350
19
  3
ByLayer
350
11
  3
Global
350
21
  0
DICTIONARY
  5
65
102
{ACAD_REACTORS
330
C
102
}
330
C
100
AcDbDictionary
281
     1
  3
Standard
350
66
  0
DICTIONARY
  5
5E
102
{ACAD_REACTORS
330
C
102
}
330
C
100
AcDbDictionary
281
     1
  3
Standard
350
5F
  0
DICTIONARY
  5
60
102
{ACAD_REACTORS
330
C
102
}
330
C
100
AcDbDictionary
281
     1
  0
ACDBDICTIONARYWDFLT
  5
E
102
{ACAD_REACTORS
330
C
102
}
330
C
100
AcDbDictionary
281
     1
  3
Normal
350
F
100
AcDbDictionaryWithDefault
340
F
  0
DICTIONARY
  5
42
102
{ACAD_REACTORS
330
C
102
}
330
C
100
AcDbDictionary
281
     1
  3
A0
350
43
  3
A1
350
44
  3
A2
350
45
  3
A3
350
46
  3
A4
350
47
  3
A5
350
48
  3
A6
350
49
  3
A7
350
4A
  3
A8
350
4B
  3
A9
350
4C
  3
B0
350
4D
  3
B1
350
4E
  3
B2
350
4F
  3
B3
350
50
  3
B4
350
51
  3
B5
350
52
  3
B6
350
53
  0
DICTIONARY
  5
67
102
{ACAD_REACTORS
330
C
102
}
330
C
100
AcDbDictionary
281
     1
  3
Imperial24
350
68
  0
DICTIONARY
  5
63
102
{ACAD_REACTORS
330
C
102
}
330
C
100
AcDbDictionary
281
     1
  3
Standard
350
64
  0
DICTIONARY
  5
29
102
{ACAD_REACTORS
330
C
102
}
330
C
100
AcDbDictionary
281
     1
  3
2dWireframe
350
2F
  3
Basic
350
2E
  3
Brighten
350
35
  3
ColorChange
350
39
  3
Conceptual
350
32
  3
Dim
350
34
  3
EdgeColorOff
350
41
  3
Facepattern
350
38
  3
Flat
350
2A
  3
FlatWithEdges
350
2B
  3
Gouraud
350
2C
  3
GouraudWithEdges
350
2D
  3
Hidden
350
31
  3
JitterOff
350
3F
  3
Linepattern
350
37
  3
OverhangOff
350
40
  3
Realistic
350
33
  3
Shaded
350
3E
  3
Shaded with edges
350
3D
  3
Shades of Gray
350
3A
  3
Sketchy
350
3B
  3
Thicken
350
36
  3
Wireframe
350
30
  3
X-Ray
350
3C
  0
XRECORD
  5
51E
102
{ACAD_REACTORS
330
C
102
}
330
C
100
AcDbXrecord
280
     1
 90
        1
330
64
  0
DICTIONARY
  5
512
102
{ACAD_REACTORS
330
C
102
}
330
C
100
AcDbDictionary
281
     1
  3
CANNOSCALE
350
517
  3
CMLEADERSTYLE
350
514
  3
CTABLESTYLE
350
513
  3
CVIEWDETAILSTYLE
350
515
  3
CVIEWSECTIONSTYLE
350
516
  3
DIMASSOC
350
51A
  3
INDEXCTL
350
519
  3
SORTENTS
350
518
  3
XCLIPFRAME
350
51B
  0
DICTIONARY
  5
48E
102
{ACAD_REACTORS
330
C
102
}
330
C
100
AcDbDictionary
281
     1
  3
AcmStdDictionary
350
495
  0
DICTIONARY
  5
464
102
{ACAD_REACTORS
330
C
102
}
330
C
100
AcDbDictionary
281
     1
  0
DICTIONARY
  5
4E5
102
{ACAD_REACTORS
330
C
102
}
330
C
100
AcDbDictionary
281
     1
  0
XRECORD
  5
51F
102
{ACAD_REACTORS
330
C
102
}
330
C
100
AcDbXrecord
280
     1
  1
DWGPROPS COOKIE
  2

  3

  4

  6

  7

  8
a-komatsu
  9

300
=
301
=
302
=
303
=
304
=
305
=
306
=
307
=
308
=
309
=
 40
0.0015162037037037
 41
2453784.0
 42
2458410.659988426
  1

 90
        0
  0
XRECORD
  5
4ED
102
{ACAD_REACTORS
330
4EC
102
}
330
4EC
100
AcDbXrecord
280
     1
290
     1
  0
XRECORD
  5
4EF
102
{ACAD_REACTORS
330
4EE
102
}
330
4EE
100
AcDbXrecord
280
     1
290
     1
  0
XRECORD
  5
4F1
102
{ACAD_REACTORS
330
4F0
102
}
330
4F0
100
AcDbXrecord
280
     1
290
     1
  0
XRECORD
  5
4F3
102
{ACAD_REACTORS
330
4F2
102
}
330
4F2
100
AcDbXrecord
280
     1
290
     1
  0
XRECORD
  5
4F5
102
{ACAD_REACTORS
330
4F4
102
}
330
4F4
100
AcDbXrecord
280
     1
290
     1
  0
XRECORD
  5
4F7
102
{ACAD_REACTORS
330
4F6
102
}
330
4F6
100
AcDbXrecord
280
     1
290
     1
  0
XRECORD
  5
4F9
102
{ACAD_REACTORS
330
4F8
102
}
330
4F8
100
AcDbXrecord
280
     1
290
     1
  0
XRECORD
  5
4FB
102
{ACAD_REACTORS
330
4FA
102
}
330
4FA
100
AcDbXrecord
280
     1
290
     1
  0
XRECORD
  5
4FD
102
{ACAD_REACTORS
330
4FC
102
}
330
4FC
100
AcDbXrecord
280
     1
290
     1
  0
XRECORD
  5
4FF
102
{ACAD_REACTORS
330
4FE
102
}
330
4FE
100
AcDbXrecord
280
     1
290
     1
  0
XRECORD
  5
501
102
{ACAD_REACTORS
330
500
102
}
330
500
100
AcDbXrecord
280
     1
290
     1
  0
XRECORD
  5
503
102
{ACAD_REACTORS
330
502
102
}
330
502
100
AcDbXrecord
280
     1
290
     1
  0
XRECORD
  5
505
102
{ACAD_REACTORS
330
504
102
}
330
504
100
AcDbXrecord
280
     1
290
     1
  0
XRECORD
  5
507
102
{ACAD_REACTORS
330
506
102
}
330
506
100
AcDbXrecord
280
     1
290
     1
  0
XRECORD
  5
509
102
{ACAD_REACTORS
330
508
102
}
330
508
100
AcDbXrecord
280
     1
290
     1
  0
XRECORD
  5
50B
102
{ACAD_REACTORS
330
50A
102
}
330
50A
100
AcDbXrecord
280
     1
290
     1
  0
XRECORD
  5
50D
102
{ACAD_REACTORS
330
50C
102
}
330
50C
100
AcDbXrecord
280
     1
290
     1
  0
XRECORD
  5
50F
102
{ACAD_REACTORS
330
50E
102
}
330
50E
100
AcDbXrecord
280
     1
290
     1
  0
XRECORD
  5
511
102
{ACAD_REACTORS
330
510
102
}
330
510
100
AcDbXrecord
280
     1
290
     1
  0
ACDBDETAILVIEWSTYLE
  5
6A
102
{ACAD_XDICTIONARY
360
557
102
}
102
{ACAD_REACTORS
330
69
330
4C2
102
}
330
69
100
AcDbModelDocViewStyle
 70
     0
  3
Imperial24
290
     0
100
AcDbDetailViewStyle
 70
     0
 71
     0
 90
        3
 71
     1
340
55
 40
0.24
340
0
 40
0.24
300

 40
0.36
280
     3
 71
     2
340
5C
 90
       25
 71
     3
340
55
 40
0.24
 90
        1
 40
0.75
 90
        1
300
%<\AcVar ViewType \f "%tc1">% %<\AcVar ViewDetailId>%\PSCALE %<\AcVar ViewScale \f "%sn">%
 71
     4
340
5C
 90
       25
340
5C
 90
       25
280
     0
  0
LAYOUT
  5
72
102
{ACAD_XDICTIONARY
360
55B
102
}
102
{ACAD_REACTORS
330
61
102
}
330
61
100
AcDbPlotSettings
  1

  2
RICOH Black&White (RPCS)
  4

  6

 40
0.0
 41
0.0
 42
0.0
 43
0.0
 44
0.0
 45
0.0
 46
0.0
 47
0.0
 48
0.0
 49
0.0
140
0.0
141
0.0
142
1.0
143
1.0
 70
  1712
 72
     0
 73
     0
 74
     0
  7

 75
     0
147
1.0
148
0.0
149
0.0
100
AcDbLayout
  1
Model
 70
     1
 71
     0
 10
0.0
 20
0.0
 11
12.0
 21
9.0
 12
0.0
 22
0.0
 32
0.0
 14
0.0
 24
0.0
 34
0.0
 15
0.0
 25
0.0
 35
0.0
146
0.0
 13
0.0
 23
0.0
 33
0.0
 16
1.0
 26
0.0
 36
0.0
 17
0.0
 27
1.0
 37
0.0
 76
     0
330
6F
331
90
  0
LAYOUT
  5
6E
102
{ACAD_XDICTIONARY
360
559
102
}
102
{ACAD_REACTORS
330
61
102
}
330
61
100
AcDbPlotSettings
  1

  2
RICOH Black&White (RPCS)
  4

  6

 40
0.0
 41
0.0
 42
0.0
 43
0.0
 44
0.0
 45
0.0
 46
0.0
 47
0.0
 48
0.0
 49
0.0
140
0.0
141
0.0
142
1.0
143
1.0
 70
   688
 72
     0
 73
     0
 74
     5
  7

 75
    16
147
1.0
148
0.0
149
0.0
100
AcDbLayout
  1
レイアウト1
 70
     1
 71
     1
 10
0.0
 20
0.0
 11
12.0
 21
9.0
 12
0.0
 22
0.0
 32
0.0
 14
1.000000000000000E+20
 24
1.000000000000000E+20
 34
1.000000000000000E+20
 15
-1.000000000000000E+20
 25
-1.000000000000000E+20
 35
-1.000000000000000E+20
146
0.0
 13
0.0
 23
0.0
 33
0.0
 16
1.0
 26
0.0
 36
0.0
 17
0.0
 27
1.0
 37
0.0
 76
     0
330
6B
  0
MATERIAL
  5
19
102
{ACAD_XDICTIONARY
360
1A
102
}
102
{ACAD_REACTORS
330
10
102
}
330
10
100
AcDbMaterial
  1
ByBlock
 72
     0
 43
0.0208333333333333
 43
0.0
 43
0.0
 43
0.0
 43
0.0
 43
0.0208333333333333
 43
0.0
 43
0.0
 43
0.0
 43
0.0
 43
1.0
 43
0.0
 43
0.0
 43
0.0
 43
0.0
 43
1.0
 77
     0
 47
0.0208333333333333
 47
0.0
 47
0.0
 47
0.0
 47
0.0
 47
0.0208333333333333
 47
0.0
 47
0.0
 47
0.0
 47
0.0
 47
1.0
 47
0.0
 47
0.0
 47
0.0
 47
0.0
 47
1.0
171
     0
 49
0.0208333333333333
 49
0.0
 49
0.0
 49
0.0
 49
0.0
 49
0.0208333333333333
 49
0.0
 49
0.0
 49
0.0
 49
0.0
 49
1.0
 49
0.0
 49
0.0
 49
0.0
 49
0.0
 49
1.0
175
     0
142
0.0208333333333333
142
0.0
142
0.0
142
0.0
142
0.0
142
0.0208333333333333
142
0.0
142
0.0
142
0.0
142
0.0
142
1.0
142
0.0
142
0.0
142
0.0
142
0.0
142
1.0
179
     0
144
0.0208333333333333
144
0.0
144
0.0
144
0.0
144
0.0
144
0.0208333333333333
144
0.0
144
0.0
144
0.0
144
0.0
144
1.0
144
0.0
144
0.0
144
0.0
144
0.0
144
1.0
147
0.0208333333333333
147
0.0
147
0.0
147
0.0
147
0.0
147
0.0208333333333333
147
0.0
147
0.0
147
0.0
147
0.0
147
1.0
147
0.0
147
0.0
147
0.0
147
0.0
147
1.0
  0
MATERIAL
  5
11
102
{ACAD_XDICTIONARY
360
12
102
}
102
{ACAD_REACTORS
330
10
102
}
330
10
100
AcDbMaterial
  1
ByLayer
 72
     0
 43
0.0208333333333333
 43
0.0
 43
0.0
 43
0.0
 43
0.0
 43
0.0208333333333333
 43
0.0
 43
0.0
 43
0.0
 43
0.0
 43
1.0
 43
0.0
 43
0.0
 43
0.0
 43
0.0
 43
1.0
 77
     0
 47
0.0208333333333333
 47
0.0
 47
0.0
 47
0.0
 47
0.0
 47
0.0208333333333333
 47
0.0
 47
0.0
 47
0.0
 47
0.0
 47
1.0
 47
0.0
 47
0.0
 47
0.0
 47
0.0
 47
1.0
171
     0
 49
0.0208333333333333
 49
0.0
 49
0.0
 49
0.0
 49
0.0
 49
0.0208333333333333
 49
0.0
 49
0.0
 49
0.0
 49
0.0
 49
1.0
 49
0.0
 49
0.0
 49
0.0
 49
0.0
 49
1.0
175
     0
142
0.0208333333333333
142
0.0
142
0.0
142
0.0
142
0.0
142
0.0208333333333333
142
0.0
142
0.0
142
0.0
142
0.0
142
1.0
142
0.0
142
0.0
142
0.0
142
0.0
142
1.0
179
     0
144
0.0208333333333333
144
0.0
144
0.0
144
0.0
144
0.0
144
0.0208333333333333
144
0.0
144
0.0
144
0.0
144
0.0
144
1.0
144
0.0
144
0.0
144
0.0
144
0.0
144
1.0
147
0.0208333333333333
147
0.0
147
0.0
147
0.0
147
0.0
147
0.0208333333333333
147
0.0
147
0.0
147
0.0
147
0.0
147
1.0
147
0.0
147
0.0
147
0.0
147
0.0
147
1.0
  0
MATERIAL
  5
21
102
{ACAD_XDICTIONARY
360
22
102
}
102
{ACAD_REACTORS
330
10
102
}
330
10
100
AcDbMaterial
  1
Global
 72
     0
 43
0.0208333333333333
 43
0.0
 43
0.0
 43
0.0
 43
0.0
 43
0.0208333333333333
 43
0.0
 43
0.0
 43
0.0
 43
0.0
 43
1.0
 43
0.0
 43
0.0
 43
0.0
 43
0.0
 43
1.0
 77
     0
 47
0.0208333333333333
 47
0.0
 47
0.0
 47
0.0
 47
0.0
 47
0.0208333333333333
 47
0.0
 47
0.0
 47
0.0
 47
0.0
 47
1.0
 47
0.0
 47
0.0
 47
0.0
 47
0.0
 47
1.0
171
     0
 49
0.0208333333333333
 49
0.0
 49
0.0
 49
0.0
 49
0.0
 49
0.0208333333333333
 49
0.0
 49
0.0
 49
0.0
 49
0.0
 49
1.0
 49
0.0
 49
0.0
 49
0.0
 49
0.0
 49
1.0
175
     0
142
0.0208333333333333
142
0.0
142
0.0
142
0.0
142
0.0
142
0.0208333333333333
142
0.0
142
0.0
142
0.0
142
0.0
142
1.0
142
0.0
142
0.0
142
0.0
142
0.0
142
1.0
179
     0
144
0.0208333333333333
144
0.0
144
0.0
144
0.0
144
0.0
144
0.0208333333333333
144
0.0
144
0.0
144
0.0
144
0.0
144
1.0
144
0.0
144
0.0
144
0.0
144
0.0
144
1.0
147
0.0208333333333333
147
0.0
147
0.0
147
0.0
147
0.0
147
0.0208333333333333
147
0.0
147
0.0
147
0.0
147
0.0
147
1.0
147
0.0
147
0.0
147
0.0
147
0.0
147
1.0
  0
MLEADERSTYLE
  5
66
102
{ACAD_REACTORS
330
65
102
}
330
65
100
AcDbMLeaderStyle
170
     2
171
     1
172
     0
 90
        2
 40
0.0
 41
0.0
173
     1
 91
-1056964608
340
5A
 92
       -2
290
     1
 42
0.09
291
     1
 43
0.36
  3
Standard
 44
0.18
300

342
55
174
     1
178
     6
175
     1
176
     0
 93
-1056964608
 45
0.18
292
     0
297
     0
 46
0.18
 94
-1056964608
 47
1.0
 49
1.0
140
1.0
293
     1
141
0.0
294
     1
177
     0
142
1.0
295
     0
296
     0
143
0.125
1001
ACAD_MLEADERVER
1070
     2
  0
MLINESTYLE
  5
5F
102
{ACAD_REACTORS
330
5E
102
}
330
5E
100
AcDbMlineStyle
  2
STANDARD
 70
     0
  3

 62
   256
 51
90.0
 52
90.0
 71
     2
 49
0.5
 62
   256
  6
BYLAYER
 49
-0.5
 62
   256
  6
BYLAYER
  0
ACDBPLACEHOLDER
  5
F
102
{ACAD_REACTORS
330
E
102
}
330
E
  0
SCALE
  5
43
102
{ACAD_REACTORS
330
42
102
}
330
42
100
AcDbScale
 70
     0
300
1:1
140
1.0
141
1.0
290
     1
  0
SCALE
  5
44
102
{ACAD_REACTORS
330
42
102
}
330
42
100
AcDbScale
 70
     0
300
1/128" = 1'-0"
140
0.0078125
141
12.0
290
     0
  0
SCALE
  5
45
102
{ACAD_REACTORS
330
42
102
}
330
42
100
AcDbScale
 70
     0
300
1/64" = 1'-0"
140
0.015625
141
12.0
290
     0
  0
SCALE
  5
46
102
{ACAD_REACTORS
330
42
102
}
330
42
100
AcDbScale
 70
     0
300
1/32" = 1'-0"
140
0.03125
141
12.0
290
     0
  0
SCALE
  5
47
102
{ACAD_REACTORS
330
42
102
}
330
42
100
AcDbScale
 70
     0
300
1/16" = 1'-0"
140
0.0625
141
12.0
290
     0
  0
SCALE
  5
48
102
{ACAD_REACTORS
330
42
102
}
330
42
100
AcDbScale
 70
     0
300
3/32" = 1'-0"
140
0.09375
141
12.0
290
     0
  0
SCALE
  5
49
102
{ACAD_REACTORS
330
42
102
}
330
42
100
AcDbScale
 70
     0
300
1/8" = 1'-0"
140
0.125
141
12.0
290
     0
  0
SCALE
  5
4A
102
{ACAD_REACTORS
330
42
102
}
330
42
100
AcDbScale
 70
     0
300
3/16" = 1'-0"
140
0.1875
141
12.0
290
     0
  0
SCALE
  5
4B
102
{ACAD_REACTORS
330
42
102
}
330
42
100
AcDbScale
 70
     0
300
1/4" = 1'-0"
140
0.25
141
12.0
290
     0
  0
SCALE
  5
4C
102
{ACAD_REACTORS
330
42
102
}
330
42
100
AcDbScale
 70
     0
300
3/8" = 1'-0"
140
0.375
141
12.0
290
     0
  0
SCALE
  5
4D
102
{ACAD_REACTORS
330
42
102
}
330
42
100
AcDbScale
 70
     0
300
1/2" = 1'-0"
140
0.5
141
12.0
290
     0
  0
SCALE
  5
4E
102
{ACAD_REACTORS
330
42
102
}
330
42
100
AcDbScale
 70
     0
300
3/4" = 1'-0"
140
0.75
141
12.0
290
     0
  0
SCALE
  5
4F
102
{ACAD_REACTORS
330
42
102
}
330
42
100
AcDbScale
 70
     0
300
1" = 1'-0"
140
1.0
141
12.0
290
     0
  0
SCALE
  5
50
102
{ACAD_REACTORS
330
42
102
}
330
42
100
AcDbScale
 70
     0
300
1-1/2" = 1'-0"
140
1.5
141
12.0
290
     0
  0
SCALE
  5
51
102
{ACAD_REACTORS
330
42
102
}
330
42
100
AcDbScale
 70
     0
300
3" = 1'-0"
140
3.0
141
12.0
290
     0
  0
SCALE
  5
52
102
{ACAD_REACTORS
330
42
102
}
330
42
100
AcDbScale
 70
     0
300
6" = 1'-0"
140
6.0
141
12.0
290
     0
  0
SCALE
  5
53
102
{ACAD_REACTORS
330
42
102
}
330
42
100
AcDbScale
 70
     0
300
1'-0" = 1'-0"
140
12.0
141
12.0
290
     0
  0
ACDBSECTIONVIEWSTYLE
  5
68
102
{ACAD_XDICTIONARY
360
555
102
}
102
{ACAD_REACTORS
330
67
330
4C1
102
}
330
67
100
AcDbModelDocViewStyle
 70
     0
  3
Imperial24
290
     0
100
AcDbSectionViewStyle
 70
     0
 71
     0
 90
       78
 71
     1
340
55
 40
0.24
340
0
340
0
 40
0.24
300
I, O, Q, S, X, Z
 40
0.48
 90
        3
 40
0.18
 90
        1
 71
     2
340
5C
 90
       25
340
5C
 90
       50
 40
0.24
 40
0.0
 40
0.24
 71
     3
340
55
 40
0.24
 90
        1
 40
0.75
 90
        1
300
%<\AcVar ViewType \f "%tc1">% %<\AcVar ViewSectionStartId>%-%<\AcVar ViewSectionEndId>%\PSCALE %<\AcVar ViewScale \f "%sn">%
 71
     4
300
ANSI31
 40
1.0
 90
        0
290
     0
290
     0
 90
        6
 40
0.0
 40
1.570796326794896
 40
0.2617993877991494
 40
1.308996938995747
 40
-0.2617993877991494
 40
1.832595714594046
  0
TABLESTYLE
  5
64
102
{ACAD_XDICTIONARY
360
51C
102
}
102
{ACAD_REACTORS
330
63
102
}
330
63
100
AcDbTableStyle
  3
Standard
 70
     0
 71
     0
 40
0.06
 41
0.06
280
     0
281
     0
  7
Standard
140
0.18
170
     2
 62
     0
 63
     7
283
     0
274
    -2
284
     1
 64
     0
275
    -2
285
     1
 65
     0
276
    -2
286
     1
 66
     0
277
    -2
287
     1
 67
     0
278
    -2
288
     1
 68
     0
279
    -2
289
     1
 69
     0
  7
Standard
140
0.25
170
     5
 62
     0
 63
     7
283
     0
274
    -2
284
     1
 64
     0
275
    -2
285
     1
 65
     0
276
    -2
286
     1
 66
     0
277
    -2
287
     1
 67
     0
278
    -2
288
     1
 68
     0
279
    -2
289
     1
 69
     0
  7
Standard
140
0.18
170
     5
 62
     0
 63
     7
283
     0
274
    -2
284
     1
 64
     0
275
    -2
285
     1
 65
     0
276
    -2
286
     1
 66
     0
277
    -2
287
     1
 67
     0
278
    -2
288
     1
 68
     0
279
    -2
289
     1
 69
     0
  0
VISUALSTYLE
  5
2F
102
{ACAD_XDICTIONARY
360
52D
102
}
102
{ACAD_REACTORS
330
29
102
}
330
29
100
AcDbVisualStyle
  2
2dWireframe
 70
     4
 71
     0
 72
     2
 73
     0
 90
        0
 40
-0.6
 41
-30.0
 62
     5
 63
     7
 74
     1
 91
        4
 64
     7
 65
   257
 75
     1
175
     1
 42
1.0
 92
        0
 66
   257
 43
1.0
 76
     1
 77
     6
 78
     2
 67
     7
 79
     5
170
     0
171
     0
290
     0
174
     0
 93
        1
 44
0.0
173
     0
291
     0
 45
0.0
1001
ACAD
1000
AcDbSavedByObjectVersion
1070
     0
  0
VISUALSTYLE
  5
2E
102
{ACAD_XDICTIONARY
360
52B
102
}
102
{ACAD_REACTORS
330
29
102
}
330
29
100
AcDbVisualStyle
  2
Basic
 70
     7
 71
     1
 72
     0
 73
     1
 90
        0
 40
-0.6
 41
-30.0
 62
     5
 63
     7
 74
     0
 91
        4
 64
     7
 65
   257
 75
     1
175
     1
 42
1.0
 92
        8
 66
     7
 43
1.0
 76
     1
 77
     6
 78
     2
 67
     7
 79
     5
170
     0
171
     0
290
     0
174
     0
 93
        1
 44
0.0
173
     0
291
     1
 45
0.0
1001
ACAD
1000
AcDbSavedByObjectVersion
1070
     0
  0
VISUALSTYLE
  5
35
102
{ACAD_XDICTIONARY
360
539
102
}
102
{ACAD_REACTORS
330
29
102
}
330
29
100
AcDbVisualStyle
  2
Brighten
 70
    12
 71
     2
 72
     2
 73
     0
 90
        0
 40
-0.6
 41
-30.0
 62
     5
 63
     7
 74
     1
 91
        4
 64
     7
 65
   257
 75
     1
175
     1
 42
1.0
 92
        8
 66
     7
 43
1.0
 76
     1
 77
     6
 78
     2
 67
     7
 79
     5
170
     0
171
     0
290
     0
174
     0
 93
        1
 44
50.0
173
     0
291
     1
 45
0.0
1001
ACAD
1000
AcDbSavedByObjectVersion
1070
     0
  0
VISUALSTYLE
  5
39
102
{ACAD_XDICTIONARY
360
541
102
}
102
{ACAD_REACTORS
330
29
102
}
330
29
100
AcDbVisualStyle
  2
ColorChange
 70
    16
 71
     2
 72
     2
 73
     3
 90
        0
 40
-0.6
 41
-30.0
 62
     5
 63
     8
 74
     1
 91
        4
 64
     7
 65
   257
 75
     1
175
     1
 42
1.0
 92
        8
 66
     8
 43
1.0
 76
     1
 77
     6
 78
     2
 67
     7
 79
     5
170
     0
171
     0
290
     0
174
     0
 93
        1
 44
0.0
173
     0
291
     1
 45
0.0
1001
ACAD
1000
AcDbSavedByObjectVersion
1070
     0
  0
VISUALSTYLE
  5
32
102
{ACAD_XDICTIONARY
360
533
102
}
102
{ACAD_REACTORS
330
29
102
}
330
29
100
AcDbVisualStyle
  2
Conceptual
 70
     9
 71
     3
 72
     2
 73
     0
 90
        0
 40
-0.6
 41
-30.0
 62
     5
 63
     7
 74
     2
 91
        2
 64
     7
 65
   257
 75
     1
175
     1
 42
179.0
 92
        8
 66
     7
 43
1.0
 76
     1
 77
     6
 78
     2
 67
     7
 79
     3
170
     0
171
     0
290
     0
174
     0
 93
        1
 44
0.0
173
     0
291
     0
 45
0.0
1001
ACAD
1000
AcDbSavedByObjectVersion
1070
     0
  0
VISUALSTYLE
  5
34
102
{ACAD_XDICTIONARY
360
537
102
}
102
{ACAD_REACTORS
330
29
102
}
330
29
100
AcDbVisualStyle
  2
Dim
 70
    11
 71
     2
 72
     2
 73
     0
 90
        0
 40
-0.6
 41
-30.0
 62
     5
 63
     7
 74
     1
 91
        4
 64
     7
 65
   257
 75
     1
175
     1
 42
1.0
 92
        8
 66
     7
 43
1.0
 76
     1
 77
     6
 78
     2
 67
     7
 79
     5
170
     0
171
     0
290
     0
174
     0
 93
        1
 44
-50.0
173
     0
291
     1
 45
0.0
1001
ACAD
1000
AcDbSavedByObjectVersion
1070
     0
  0
VISUALSTYLE
  5
41
102
{ACAD_XDICTIONARY
360
551
102
}
102
{ACAD_REACTORS
330
29
102
}
330
29
100
AcDbVisualStyle
  2
EdgeColorOff
 70
    22
 71
     2
 72
     2
 73
     0
 90
        0
 40
-0.6
 41
-30.0
 62
     5
 63
     7
 74
     1
 91
        4
 64
     7
 65
   257
 75
     1
175
     1
 42
1.0
 92
        8
 66
     7
 43
1.0
 76
     1
 77
     6
 78
     2
 67
     7
 79
     5
170
     0
171
     0
290
     0
174
     0
 93
        1
 44
0.0
173
     0
291
     1
 45
0.0
1001
ACAD
1000
AcDbSavedByObjectVersion
1070
     0
  0
VISUALSTYLE
  5
38
102
{ACAD_XDICTIONARY
360
53F
102
}
102
{ACAD_REACTORS
330
29
102
}
330
29
100
AcDbVisualStyle
  2
Facepattern
 70
    15
 71
     2
 72
     2
 73
     0
 90
        0
 40
-0.6
 41
-30.0
 62
     5
 63
     7
 74
     1
 91
        4
 64
     7
 65
   257
 75
     1
175
     1
 42
1.0
 92
        8
 66
     7
 43
1.0
 76
     1
 77
     6
 78
     2
 67
     7
 79
     5
170
     0
171
     0
290
     0
174
     0
 93
        1
 44
0.0
173
     0
291
     1
 45
0.0
1001
ACAD
1000
AcDbSavedByObjectVersion
1070
     0
  0
VISUALSTYLE
  5
2A
102
{ACAD_XDICTIONARY
360
523
102
}
102
{ACAD_REACTORS
330
29
102
}
330
29
100
AcDbVisualStyle
  2
Flat
 70
     0
 71
     2
 72
     1
 73
     1
 90
        2
 40
-0.6
 41
30.0
 62
     5
 63
     7
 74
     0
 91
        0
 64
     7
 65
   257
 75
     1
175
     1
 42
1.0
 92
        8
 66
     7
 43
1.0
 76
     1
 77
     6
 78
     2
 67
     7
 79
     5
170
     0
171
     0
290
     0
174
     0
 93
       13
 44
0.0
173
     0
291
     1
 45
0.0
1001
ACAD
1000
AcDbSavedByObjectVersion
1070
     0
  0
VISUALSTYLE
  5
2B
102
{ACAD_XDICTIONARY
360
525
102
}
102
{ACAD_REACTORS
330
29
102
}
330
29
100
AcDbVisualStyle
  2
FlatWithEdges
 70
     1
 71
     2
 72
     1
 73
     1
 90
        2
 40
-0.6
 41
30.0
 62
     5
 63
     7
 74
     1
 91
        0
 64
     7
 65
   257
 75
     1
175
     1
 42
1.0
 92
        0
 66
   257
 43
1.0
 76
     1
 77
     6
 78
     2
 67
     7
 79
     5
170
     0
171
     0
290
     0
174
     0
 93
       13
 44
0.0
173
     0
291
     1
 45
0.0
1001
ACAD
1000
AcDbSavedByObjectVersion
1070
     0
  0
VISUALSTYLE
  5
2C
102
{ACAD_XDICTIONARY
360
527
102
}
102
{ACAD_REACTORS
330
29
102
}
330
29
100
AcDbVisualStyle
  2
Gouraud
 70
     2
 71
     2
 72
     2
 73
     1
 90
        2
 40
-0.6
 41
30.0
 62
     5
 63
     7
 74
     0
 91
        0
 64
     7
 65
   257
 75
     1
175
     1
 42
1.0
 92
        0
 66
     7
 43
1.0
 76
     1
 77
     6
 78
     2
 67
     7
 79
     5
170
     0
171
     0
290
     0
174
     0
 93
       13
 44
0.0
173
     0
291
     1
 45
0.0
1001
ACAD
1000
AcDbSavedByObjectVersion
1070
     0
  0
VISUALSTYLE
  5
2D
102
{ACAD_XDICTIONARY
360
529
102
}
102
{ACAD_REACTORS
330
29
102
}
330
29
100
AcDbVisualStyle
  2
GouraudWithEdges
 70
     3
 71
     2
 72
     2
 73
     1
 90
        2
 40
-0.6
 41
30.0
 62
     5
 63
     7
 74
     1
 91
        0
 64
     7
 65
   257
 75
     1
175
     1
 42
1.0
 92
        0
 66
   257
 43
1.0
 76
     1
 77
     6
 78
     2
 67
     7
 79
     5
170
     0
171
     0
290
     0
174
     0
 93
       13
 44
0.0
173
     0
291
     1
 45
0.0
1001
ACAD
1000
AcDbSavedByObjectVersion
1070
     0
  0
VISUALSTYLE
  5
31
102
{ACAD_XDICTIONARY
360
531
102
}
102
{ACAD_REACTORS
330
29
102
}
330
29
100
AcDbVisualStyle
  2
Hidden
 70
     6
 71
     1
 72
     2
 73
     2
 90
        0
 40
-0.6
 41
-30.0
 62
     5
 63
     7
 74
     2
 91
        2
 64
     7
 65
   257
 75
     2
175
     1
 42
40.0
 92
        0
 66
   257
 43
1.0
 76
     1
 77
     6
 78
     2
 67
     7
 79
     3
170
     0
171
     0
290
     0
174
     0
 93
        1
 44
0.0
173
     0
291
     0
 45
0.0
1001
ACAD
1000
AcDbSavedByObjectVersion
1070
     0
  0
VISUALSTYLE
  5
3F
102
{ACAD_XDICTIONARY
360
54D
102
}
102
{ACAD_REACTORS
330
29
102
}
330
29
100
AcDbVisualStyle
  2
JitterOff
 70
    20
 71
     2
 72
     2
 73
     0
 90
        0
 40
-0.6
 41
-30.0
 62
     5
 63
     7
 74
     1
 91
        4
 64
     7
 65
   257
 75
     1
175
     1
 42
1.0
 92
       10
 66
     7
 43
1.0
 76
     1
 77
     6
 78
     2
 67
     7
 79
     5
170
     0
171
     0
290
     0
174
     0
 93
        1
 44
0.0
173
     0
291
     1
 45
0.0
1001
ACAD
1000
AcDbSavedByObjectVersion
1070
     0
  0
VISUALSTYLE
  5
37
102
{ACAD_XDICTIONARY
360
53D
102
}
102
{ACAD_REACTORS
330
29
102
}
330
29
100
AcDbVisualStyle
  2
Linepattern
 70
    14
 71
     2
 72
     2
 73
     0
 90
        0
 40
-0.6
 41
-30.0
 62
     5
 63
     7
 74
     1
 91
        4
 64
     7
 65
   257
 75
     7
175
     7
 42
1.0
 92
        8
 66
     7
 43
1.0
 76
     1
 77
     6
 78
     2
 67
     7
 79
     5
170
     0
171
     0
290
     0
174
     0
 93
        1
 44
0.0
173
     0
291
     1
 45
0.0
1001
ACAD
1000
AcDbSavedByObjectVersion
1070
     0
  0
VISUALSTYLE
  5
40
102
{ACAD_XDICTIONARY
360
54F
102
}
102
{ACAD_REACTORS
330
29
102
}
330
29
100
AcDbVisualStyle
  2
OverhangOff
 70
    21
 71
     2
 72
     2
 73
     0
 90
        0
 40
-0.6
 41
-30.0
 62
     5
 63
     7
 74
     1
 91
        4
 64
     7
 65
   257
 75
     1
175
     1
 42
1.0
 92
        9
 66
     7
 43
1.0
 76
     1
 77
     6
 78
     2
 67
     7
 79
     5
170
     0
171
     0
290
     0
174
     0
 93
        1
 44
0.0
173
     0
291
     1
 45
0.0
1001
ACAD
1000
AcDbSavedByObjectVersion
1070
     0
  0
VISUALSTYLE
  5
33
102
{ACAD_XDICTIONARY
360
535
102
}
102
{ACAD_REACTORS
330
29
102
}
330
29
100
AcDbVisualStyle
  2
Realistic
 70
     8
 71
     2
 72
     3
 73
     0
 90
        2
 40
-0.6
 41
30.0
 62
     5
 63
     7
 74
     0
 91
        0
 64
     7
 65
   257
 75
     1
175
     1
 42
1.0
 92
        8
 66
   257
 43
1.0
 76
     1
 77
     6
 78
     2
 67
     7
 79
     3
170
     0
171
     0
290
     0
174
     0
 93
       13
 44
0.0
173
     0
291
     0
 45
0.0
1001
ACAD
1000
AcDbSavedByObjectVersion
1070
     0
  0
VISUALSTYLE
  5
3E
102
{ACAD_XDICTIONARY
360
54B
102
}
102
{ACAD_REACTORS
330
29
102
}
330
29
100
AcDbVisualStyle
  2
Shaded
 70
    27
 71
     2
 72
     2
 73
     1
 90
        2
 40
-0.6
 41
30.0
 62
     5
 63
     7
 74
     0
 91
        4
 64
     7
 65
   257
 75
     1
175
     1
 42
1.0
 92
        8
 66
   257
 43
1.0
 76
     1
 77
     6
 78
     2
 67
     8
 79
     3
170
     0
171
     0
290
     0
174
     0
 93
        5
 44
0.0
173
     0
291
     0
 45
0.0
1001
ACAD
1000
AcDbSavedByObjectVersion
1070
     0
  0
VISUALSTYLE
  5
3D
102
{ACAD_XDICTIONARY
360
549
102
}
102
{ACAD_REACTORS
330
29
102
}
330
29
100
AcDbVisualStyle
  2
Shaded with edges
 70
    26
 71
     2
 72
     2
 73
     1
 90
        2
 40
-0.6
 41
30.0
 62
     5
 63
     7
 74
     1
 91
        2
 64
     7
 65
   257
 75
     2
175
     1
 42
1.0
 92
        8
 66
   257
 43
1.0
 76
     1
 77
     6
 78
     2
 67
     7
 79
     3
170
     0
171
     0
290
     0
174
     0
 93
        5
 44
0.0
173
     0
291
     0
 45
0.0
1001
ACAD
1000
AcDbSavedByObjectVersion
1070
     0
  0
VISUALSTYLE
  5
3A
102
{ACAD_XDICTIONARY
360
543
102
}
102
{ACAD_REACTORS
330
29
102
}
330
29
100
AcDbVisualStyle
  2
Shades of Gray
 70
    23
 71
     2
 72
     2
 73
     3
 90
        0
 40
-0.6
 41
-30.0
 62
     5
 63
     7
 74
     2
 91
        2
 64
     7
 65
     7
 75
     1
175
     1
 42
40.0
 92
        8
 66
     7
 43
1.0
 76
     1
 77
     6
 78
     2
 67
     7
 79
     3
170
     0
171
     0
290
     0
174
     0
 93
        1
 44
0.0
173
     0
291
     0
 45
0.0
1001
ACAD
1000
AcDbSavedByObjectVersion
1070
     0
  0
VISUALSTYLE
  5
3B
102
{ACAD_XDICTIONARY
360
545
102
}
102
{ACAD_REACTORS
330
29
102
}
330
29
100
AcDbVisualStyle
  2
Sketchy
 70
    24
 71
     1
 72
     2
 73
     2
 90
        0
 40
-0.6
 41
-30.0
 62
     5
 63
     7
 74
     2
 91
        2
 64
     7
 65
     7
 75
     1
175
     1
 42
40.0
 92
       11
 66
     7
 43
1.0
 76
     1
 77
     6
 78
     2
 67
     7
 79
     6
170
     0
171
     0
290
     0
174
     0
 93
        1
 44
0.0
173
     0
291
     0
 45
0.0
1001
ACAD
1000
AcDbSavedByObjectVersion
1070
     0
  0
VISUALSTYLE
  5
36
102
{ACAD_XDICTIONARY
360
53B
102
}
102
{ACAD_REACTORS
330
29
102
}
330
29
100
AcDbVisualStyle
  2
Thicken
 70
    13
 71
     2
 72
     2
 73
     0
 90
        0
 40
-0.6
 41
-30.0
 62
     5
 63
     7
 74
     1
 91
        4
 64
     7
 65
   257
 75
     1
175
     1
 42
1.0
 92
       12
 66
     7
 43
1.0
 76
     1
 77
     6
 78
     2
 67
     7
 79
     5
170
     0
171
     0
290
     0
174
     0
 93
        1
 44
0.0
173
     0
291
     1
 45
0.0
1001
ACAD
1000
AcDbSavedByObjectVersion
1070
     0
  0
VISUALSTYLE
  5
30
102
{ACAD_XDICTIONARY
360
52F
102
}
102
{ACAD_REACTORS
330
29
102
}
330
29
100
AcDbVisualStyle
  2
Wireframe
 70
     5
 71
     0
 72
     2
 73
     0
 90
        0
 40
-0.6
 41
-30.0
 62
     5
 63
     7
 74
     1
 91
        4
 64
     7
 65
   257
 75
     1
175
     1
 42
1.0
 92
        0
 66
   257
 43
1.0
 76
     1
 77
     6
 78
     2
 67
     7
 79
     3
170
     0
171
     0
290
     0
174
     0
 93
        1
 44
0.0
173
     0
291
     0
 45
0.0
1001
ACAD
1000
AcDbSavedByObjectVersion
1070
     0
  0
VISUALSTYLE
  5
3C
102
{ACAD_XDICTIONARY
360
547
102
}
102
{ACAD_REACTORS
330
29
102
}
330
29
100
AcDbVisualStyle
  2
X-Ray
 70
    25
 71
     2
 72
     2
 73
     1
 90
        1
 40
0.5
 41
-30.0
 62
     5
 63
     7
 74
     1
 91
        0
 64
     7
 65
   257
 75
     1
175
     1
 42
1.0
 92
        8
 66
     7
 43
1.0
 76
     1
 77
     6
 78
     2
 67
     7
 79
     3
170
     0
171
     0
290
     0
174
     0
 93
       13
 44
0.0
173
     0
291
     0
 45
0.0
1001
ACAD
1000
AcDbSavedByObjectVersion
1070
     0
  0
DICTIONARYVAR
  5
517
102
{ACAD_REACTORS
330
512
102
}
330
512
100
DictionaryVariables
280
     0
  1
1:1
  0
DICTIONARYVAR
  5
514
102
{ACAD_REACTORS
330
512
102
}
330
512
100
DictionaryVariables
280
     0
  1
STANDARD
  0
DICTIONARYVAR
  5
513
102
{ACAD_REACTORS
330
512
102
}
330
512
100
DictionaryVariables
280
     0
  1
STANDARD
  0
DICTIONARYVAR
  5
515
102
{ACAD_REACTORS
330
512
102
}
330
512
100
DictionaryVariables
280
     0
  1
Imperial24
  0
DICTIONARYVAR
  5
516
102
{ACAD_REACTORS
330
512
102
}
330
512
100
DictionaryVariables
280
     0
  1
Imperial24
  0
DICTIONARYVAR
  5
51A
102
{ACAD_REACTORS
330
512
102
}
330
512
100
DictionaryVariables
280
     0
  1
1
  0
DICTIONARYVAR
  5
519
102
{ACAD_REACTORS
330
512
102
}
330
512
100
DictionaryVariables
280
     0
  1
0
  0
DICTIONARYVAR
  5
518
102
{ACAD_REACTORS
330
512
102
}
330
512
100
DictionaryVariables
280
     0
  1
127
  0
DICTIONARYVAR
  5
51B
102
{ACAD_REACTORS
330
512
102
}
330
512
100
DictionaryVariables
280
     0
  1
2
  0
DICTIONARY
  5
495
102
{ACAD_REACTORS
330
48E
102
}
330
48E
100
AcDbDictionary
281
     1
  0
DICTIONARY
  5
557
330
6A
100
AcDbDictionary
280
     1
281
     1
  3
ACAD_XREC_ROUNDTRIP
360
558
  0
DICTIONARY
  5
55B
330
72
100
AcDbDictionary
280
     1
281
     1
  3
ACAD_XREC_ROUNDTRIP
360
55C
  0
DICTIONARY
  5
559
330
6E
100
AcDbDictionary
280
     1
281
     1
  3
ACAD_XREC_ROUNDTRIP
360
55A
  0
DICTIONARY
  5
1A
330
19
100
AcDbDictionary
280
     1
281
     1
  3
ACAD_XREC_ROUNDTRIP
360
521
  3
BUMPTILE
360
1C
  3
DIFFUSETILE
360
1B
  3
OPACITYTILE
360
1F
  3
REFLECTIONTILE
360
1E
  3
REFRACTIONTILE
360
20
  3
SPECULARTILE
360
1D
  0
DICTIONARY
  5
12
330
11
100
AcDbDictionary
280
     1
281
     1
  3
ACAD_XREC_ROUNDTRIP
360
520
  3
BUMPTILE
360
14
  3
DIFFUSETILE
360
13
  3
OPACITYTILE
360
17
  3
REFLECTIONTILE
360
16
  3
REFRACTIONTILE
360
18
  3
SPECULARTILE
360
15
  0
DICTIONARY
  5
22
330
21
100
AcDbDictionary
280
     1
281
     1
  3
ACAD_XREC_ROUNDTRIP
360
522
  3
BUMPTILE
360
24
  3
DIFFUSETILE
360
23
  3
OPACITYTILE
360
27
  3
REFLECTIONTILE
360
26
  3
REFRACTIONTILE
360
28
  3
SPECULARTILE
360
25
  0
DICTIONARY
  5
555
330
68
100
AcDbDictionary
280
     1
281
     1
  3
ACAD_XREC_ROUNDTRIP
360
556
  0
DICTIONARY
  5
51C
330
64
100
AcDbDictionary
280
     1
281
     1
  3
ACAD_ROUNDTRIP_2008_TABLESTYLE_CELLSTYLEMAP
360
51D
  3
ACAD_XREC_ROUNDTRIP
360
553
  0
DICTIONARY
  5
52D
330
2F
100
AcDbDictionary
280
     1
281
     1
  3
ACAD_XREC_ROUNDTRIP
360
52E
  0
DICTIONARY
  5
52B
330
2E
100
AcDbDictionary
280
     1
281
     1
  3
ACAD_XREC_ROUNDTRIP
360
52C
  0
DICTIONARY
  5
539
330
35
100
AcDbDictionary
280
     1
281
     1
  3
ACAD_XREC_ROUNDTRIP
360
53A
  0
DICTIONARY
  5
541
330
39
100
AcDbDictionary
280
     1
281
     1
  3
ACAD_XREC_ROUNDTRIP
360
542
  0
DICTIONARY
  5
533
330
32
100
AcDbDictionary
280
     1
281
     1
  3
ACAD_XREC_ROUNDTRIP
360
534
  0
DICTIONARY
  5
537
330
34
100
AcDbDictionary
280
     1
281
     1
  3
ACAD_XREC_ROUNDTRIP
360
538
  0
DICTIONARY
  5
551
330
41
100
AcDbDictionary
280
     1
281
     1
  3
ACAD_XREC_ROUNDTRIP
360
552
  0
DICTIONARY
  5
53F
330
38
100
AcDbDictionary
280
     1
281
     1
  3
ACAD_XREC_ROUNDTRIP
360
540
  0
DICTIONARY
  5
523
330
2A
100
AcDbDictionary
280
     1
281
     1
  3
ACAD_XREC_ROUNDTRIP
360
524
  0
DICTIONARY
  5
525
330
2B
100
AcDbDictionary
280
     1
281
     1
  3
ACAD_XREC_ROUNDTRIP
360
526
  0
DICTIONARY
  5
527
330
2C
100
AcDbDictionary
280
     1
281
     1
  3
ACAD_XREC_ROUNDTRIP
360
528
  0
DICTIONARY
  5
529
330
2D
100
AcDbDictionary
280
     1
281
     1
  3
ACAD_XREC_ROUNDTRIP
360
52A
  0
DICTIONARY
  5
531
330
31
100
AcDbDictionary
280
     1
281
     1
  3
ACAD_XREC_ROUNDTRIP
360
532
  0
DICTIONARY
  5
54D
330
3F
100
AcDbDictionary
280
     1
281
     1
  3
ACAD_XREC_ROUNDTRIP
360
54E
  0
DICTIONARY
  5
53D
330
37
100
AcDbDictionary
280
     1
281
     1
  3
ACAD_XREC_ROUNDTRIP
360
53E
  0
DICTIONARY
  5
54F
330
40
100
AcDbDictionary
280
     1
281
     1
  3
ACAD_XREC_ROUNDTRIP
360
550
  0
DICTIONARY
  5
535
330
33
100
AcDbDictionary
280
     1
281
     1
  3
ACAD_XREC_ROUNDTRIP
360
536
  0
DICTIONARY
  5
54B
330
3E
100
AcDbDictionary
280
     1
281
     1
  3
ACAD_XREC_ROUNDTRIP
360
54C
  0
DICTIONARY
  5
549
330
3D
100
AcDbDictionary
280
     1
281
     1
  3
ACAD_XREC_ROUNDTRIP
360
54A
  0
DICTIONARY
  5
543
330
3A
100
AcDbDictionary
280
     1
281
     1
  3
ACAD_XREC_ROUNDTRIP
360
544
  0
DICTIONARY
  5
545
330
3B
100
AcDbDictionary
280
     1
281
     1
  3
ACAD_XREC_ROUNDTRIP
360
546
  0
DICTIONARY
  5
53B
330
36
100
AcDbDictionary
280
     1
281
     1
  3
ACAD_XREC_ROUNDTRIP
360
53C
  0
DICTIONARY
  5
52F
330
30
100
AcDbDictionary
280
     1
281
     1
  3
ACAD_XREC_ROUNDTRIP
360
530
  0
DICTIONARY
  5
547
330
3C
100
AcDbDictionary
280
     1
281
     1
  3
ACAD_XREC_ROUNDTRIP
360
548
  0
XRECORD
  5
558
102
{ACAD_REACTORS
330
557
102
}
330
557
100
AcDbXrecord
280
     1
102
DISPLAYNAME
  1
Imperial24
102
FLAGS
 90
        0
  0
XRECORD
  5
55C
102
{ACAD_REACTORS
330
55B
102
}
330
55B
100
AcDbXrecord
280
     1
102
SHADEPLOT
 70
     0
102
SHADEPLOTRESLEVEL
 70
     2
102
SHADEPLOTCUSTOMDPI
 70
   300
  0
XRECORD
  5
55A
102
{ACAD_REACTORS
330
559
102
}
330
559
100
AcDbXrecord
280
     1
102
SHADEPLOT
 70
     0
102
SHADEPLOTRESLEVEL
 70
     2
102
SHADEPLOTCUSTOMDPI
 70
   300
  0
XRECORD
  5
521
102
{ACAD_REACTORS
330
1A
102
}
330
1A
100
AcDbXrecord
280
     1
102
MATERIAL
148
0.0
149
0.0
149
0.0
 93
        0
 94
      127
282
     0
 72
     0
 77
     0
171
     0
175
     0
179
     0
273
     0
  0
XRECORD
  5
1C
102
{ACAD_REACTORS
330
1A
102
}
330
1A
100
AcDbXrecord
280
     1
270
     1
271
     1
  0
XRECORD
  5
1B
102
{ACAD_REACTORS
330
1A
102
}
330
1A
100
AcDbXrecord
280
     1
270
     1
271
     1
  0
XRECORD
  5
1F
102
{ACAD_REACTORS
330
1A
102
}
330
1A
100
AcDbXrecord
280
     1
270
     1
271
     1
  0
XRECORD
  5
1E
102
{ACAD_REACTORS
330
1A
102
}
330
1A
100
AcDbXrecord
280
     1
270
     1
271
     1
  0
XRECORD
  5
20
102
{ACAD_REACTORS
330
1A
102
}
330
1A
100
AcDbXrecord
280
     1
270
     1
271
     1
  0
XRECORD
  5
1D
102
{ACAD_REACTORS
330
1A
102
}
330
1A
100
AcDbXrecord
280
     1
270
     1
271
     1
  0
XRECORD
  5
520
102
{ACAD_REACTORS
330
12
102
}
330
12
100
AcDbXrecord
280
     1
102
MATERIAL
148
0.0
149
0.0
149
0.0
 93
        0
 94
      127
282
     0
 72
     0
 77
     0
171
     0
175
     0
179
     0
273
     0
  0
XRECORD
  5
14
102
{ACAD_REACTORS
330
12
102
}
330
12
100
AcDbXrecord
280
     1
270
     1
271
     1
  0
XRECORD
  5
13
102
{ACAD_REACTORS
330
12
102
}
330
12
100
AcDbXrecord
280
     1
270
     1
271
     1
  0
XRECORD
  5
17
102
{ACAD_REACTORS
330
12
102
}
330
12
100
AcDbXrecord
280
     1
270
     1
271
     1
  0
XRECORD
  5
16
102
{ACAD_REACTORS
330
12
102
}
330
12
100
AcDbXrecord
280
     1
270
     1
271
     1
  0
XRECORD
  5
18
102
{ACAD_REACTORS
330
12
102
}
330
12
100
AcDbXrecord
280
     1
270
     1
271
     1
  0
XRECORD
  5
15
102
{ACAD_REACTORS
330
12
102
}
330
12
100
AcDbXrecord
280
     1
270
     1
271
     1
  0
XRECORD
  5
522
102
{ACAD_REACTORS
330
22
102
}
330
22
100
AcDbXrecord
280
     1
102
MATERIAL
148
0.0
149
0.0
149
0.0
 93
        0
 94
      127
282
     0
 72
     0
 77
     0
171
     0
175
     0
179
     0
273
     0
  0
XRECORD
  5
24
102
{ACAD_REACTORS
330
22
102
}
330
22
100
AcDbXrecord
280
     1
270
     1
271
     1
  0
XRECORD
  5
23
102
{ACAD_REACTORS
330
22
102
}
330
22
100
AcDbXrecord
280
     1
270
     1
271
     1
  0
XRECORD
  5
27
102
{ACAD_REACTORS
330
22
102
}
330
22
100
AcDbXrecord
280
     1
270
     1
271
     1
  0
XRECORD
  5
26
102
{ACAD_REACTORS
330
22
102
}
330
22
100
AcDbXrecord
280
     1
270
     1
271
     1
  0
XRECORD
  5
28
102
{ACAD_REACTORS
330
22
102
}
330
22
100
AcDbXrecord
280
     1
270
     1
271
     1
  0
XRECORD
  5
25
102
{ACAD_REACTORS
330
22
102
}
330
22
100
AcDbXrecord
280
     1
270
     1
271
     1
  0
XRECORD
  5
556
102
{ACAD_REACTORS
330
555
102
}
330
555
100
AcDbXrecord
280
     1
102
DISPLAYNAME
  1
Imperial24
102
FLAGS
 90
        0
  0
CELLSTYLEMAP
  5
51D
102
{ACAD_REACTORS
330
51C
102
}
330
51C
100
AcDbCellStyleMap
 90
        3
300
CELLSTYLE
  1
TABLEFORMAT_BEGIN
 90
        5
170
     1
 91
        0
 92
    32768
 62
   257
 93
        1
300
CONTENTFORMAT
  1
CONTENTFORMAT_BEGIN
 90
        0
 91
        0
 92
      512
 93
        0
300

 40
0.0
140
1.0
 94
        5
 62
     0
340
55
144
0.25
309
CONTENTFORMAT_END
171
     0
 94
        0
309
TABLEFORMAT_END
  1
CELLSTYLE_BEGIN
 90
        1
 91
        1
300
_TITLE
309
CELLSTYLE_END
300
CELLSTYLE
  1
TABLEFORMAT_BEGIN
 90
        5
170
     1
 91
        0
 92
        0
 62
   257
 93
        1
300
CONTENTFORMAT
  1
CONTENTFORMAT_BEGIN
 90
        0
 91
        0
 92
      512
 93
        0
300

 40
0.0
140
1.0
 94
        5
 62
     0
340
55
144
0.18
309
CONTENTFORMAT_END
171
     0
 94
        0
309
TABLEFORMAT_END
  1
CELLSTYLE_BEGIN
 90
        2
 91
        1
300
_HEADER
309
CELLSTYLE_END
300
CELLSTYLE
  1
TABLEFORMAT_BEGIN
 90
        5
170
     1
 91
        0
 92
        0
 62
   257
 93
        1
300
CONTENTFORMAT
  1
CONTENTFORMAT_BEGIN
 90
        0
 91
        0
 92
      512
 93
        0
300

 40
0.0
140
1.0
 94
        2
 62
     0
340
55
144
0.18
309
CONTENTFORMAT_END
171
     0
 94
        0
309
TABLEFORMAT_END
  1
CELLSTYLE_BEGIN
 90
        3
 91
        2
300
_DATA
309
CELLSTYLE_END
  0
XRECORD
  5
553
102
{ACAD_REACTORS
330
51C
102
}
330
51C
100
AcDbXrecord
280
     1
102
ACAD_ROUNDTRIP_PRE2007_TABLESTYLE
 90
      512
 91
        0
  1

 92
      512
 93
        0
  2

 94
      512
 95
        0
  3

  0
XRECORD
  5
52E
102
{ACAD_REACTORS
330
52D
102
}
330
52D
100
AcDbXrecord
280
     1
102
RTVSPost2010Prop28
280
     1
102
RTVSPost2010PropOp28
 70
     1
102
RTVSPost2010Prop29
280
     1
102
RTVSPost2010PropOp29
 70
     1
102
RTVSPost2010Prop30
280
     0
102
RTVSPost2010PropOp30
 70
     1
102
RTVSPost2010Prop31
280
     0
102
RTVSPost2010PropOp31
 70
     1
102
RTVSPost2010Prop32
280
     0
102
RTVSPost2010PropOp32
 70
     1
102
RTVSPost2010Prop33
280
     0
102
RTVSPost2010PropOp33
 70
     1
102
RTVSPost2010Prop34
280
     0
102
RTVSPost2010PropOp34
 70
     1
102
RTVSPost2010Prop35
280
     0
102
RTVSPost2010PropOp35
 70
     1
102
RTVSPost2010Prop36
280
     0
102
RTVSPost2010PropOp36
 70
     1
102
RTVSPost2010Prop37
 90
       50
102
RTVSPost2010PropOp37
 70
     1
102
RTVSPost2010Prop38
140
0.0
102
RTVSPost2010PropOp38
 70
     1
102
RTVSPost2010Prop39
140
1.0
102
RTVSPost2010PropOp39
 70
     1
102
RTVSPost2010Prop40
 90
        0
102
RTVSPost2010PropOp40
 70
     1
102
RTVSPost2010Prop41ColorIndex
 90
       18
102
RTVSPost2010Prop41ColorRGB
 90
        0
102
RTVSPost2010PropOp41
 70
     1
102
RTVSPost2010Prop42
 90
       50
102
RTVSPost2010PropOp42
 70
     1
102
RTVSPost2010Prop43
 90
        3
102
RTVSPost2010PropOp43
 70
     1
102
RTVSPost2010Prop44ColorIndex
 90
        5
102
RTVSPost2010Prop44ColorRGB
 90
      255
102
RTVSPost2010PropOp44
 70
     1
102
RTVSPost2010Prop45
280
     0
102
RTVSPost2010PropOp45
 70
     1
102
RTVSPost2010Prop46
 90
       50
102
RTVSPost2010PropOp46
 70
     1
102
RTVSPost2010Prop47
 90
       50
102
RTVSPost2010PropOp47
 70
     1
102
RTVSPost2010Prop48
 90
       50
102
RTVSPost2010PropOp48
 70
     1
102
RTVSPost2010Prop49
280
     0
102
RTVSPost2010PropOp49
 70
     1
102
RTVSPost2010Prop50
 90
       50
102
RTVSPost2010PropOp50
 70
     1
102
RTVSPost2010Prop51ColorIndex
 90
      256
102
RTVSPost2010Prop51ColorRGB
 90
-16777216
102
RTVSPost2010PropOp51
 70
     0
102
RTVSPost2010Prop52
140
1.0
102
RTVSPost2010PropOp52
 70
     0
102
RTVSPost2010Prop53
 90
        2
102
RTVSPost2010PropOp53
 70
     1
102
RTVSPost2010Prop54
  1
strokes_ogs.tif
102
RTVSPost2010PropOp54
 70
     1
102
RTVSPost2010Prop55
280
     0
102
RTVSPost2010PropOp55
 70
     1
102
RTVSPost2010Prop56
140
1.0
102
RTVSPost2010PropOp56
 70
     1
102
RTVSPost2010Prop57
140
1.0
102
RTVSPost2010PropOp57
 70
     1
102
RTVSPropertyOp0
 70
     1
102
RTVSPropertyOp1
 70
     1
102
RTVSPropertyOp2
 70
     1
102
RTVSPropertyOp3
 70
     1
102
RTVSPropertyOp4
 70
     1
102
RTVSPropertyOp5
 70
     1
102
RTVSPropertyOp6
 70
     1
102
RTVSPropertyOp7
 70
     1
102
RTVSPropertyOp8
 70
     1
102
RTVSPropertyOp9
 70
     1
102
RTVSPropertyOp10
 70
     1
102
RTVSPropertyOp11
 70
     1
102
RTVSPropertyOp12
 70
     1
102
RTVSPropertyOp13
 70
     1
102
RTVSPropertyOp14
 70
     1
102
RTVSPropertyOp15
 70
     1
102
RTVSPropertyOp16
 70
     1
102
RTVSPropertyOp17
 70
     1
102
RTVSPropertyOp18
 70
     1
102
RTVSPropertyOp19
 70
     1
102
RTVSPropertyOp20
 70
     1
102
RTVSPropertyOp21
 70
     1
102
RTVSPropertyOp22
 70
     1
102
RTVSPropertyOp23
 70
     1
102
RTVSPropertyOp24
 70
     1
102
RTVSPropertyOp25
 70
     1
102
RTVSPropertyOp26
 70
     1
102
RTVSPropertyOp27
 70
     1
102
RTVSPropertyOp28
 70
     1
102
RTVSPropertyOp29
 70
     1
102
RTVSPropertyOp30
 70
     1
102
RTVSPropertyOp31
 70
     1
102
RTVSPropertyOp32
 70
     1
102
RTVSPropertyOp33
 70
     1
102
RTVSPropertyOp34
 70
     1
102
RTVSPropertyOp35
 70
     1
102
RTVSPropertyOp36
 70
     1
102
RTVSPropertyOp37
 70
     1
102
RTVSPropertyOp38
 70
     1
102
RTVSPropertyOp39
 70
     1
102
RTVSPropertyOp40
 70
     1
102
RTVSPropertyOp41
 70
     1
102
RTVSPropertyOp42
 70
     1
102
RTVSPropertyOp43
 70
     1
102
RTVSPropertyOp44
 70
     1
102
RTVSPropertyOp45
 70
     1
102
RTVSPropertyOp46
 70
     1
102
RTVSPropertyOp47
 70
     1
102
RTVSPropertyOp48
 70
     1
102
RTVSPropertyOp49
 70
     1
102
RTVSPropertyOp50
 70
     1
102
RTVSPropertyOp51
 70
     0
102
RTVSPropertyOp52
 70
     0
102
RTVSPropertyOp53
 70
     1
102
RTVSPropertyOp54
 70
     1
102
RTVSPropertyOp55
 70
     1
102
RTVSPropertyOp56
 70
     1
102
RTVSPropertyOp57
 70
     1
102
RTVSPropertyOp58
 70
     1
102
RTVSPropertyOp59
 70
     1
102
RTVSPropertyOp60
 70
     1
102
RTVSPropertyOp61
 70
     1
102
RTVSPropertyOp62
 70
     1
  0
XRECORD
  5
52C
102
{ACAD_REACTORS
330
52B
102
}
330
52B
100
AcDbXrecord
280
     1
102
RTVSPost2010Prop28
280
     0
102
RTVSPost2010PropOp28
 70
     1
102
RTVSPost2010Prop29
280
     1
102
RTVSPost2010PropOp29
 70
     1
102
RTVSPost2010Prop30
280
     1
102
RTVSPost2010PropOp30
 70
     1
102
RTVSPost2010Prop31
280
     0
102
RTVSPost2010PropOp31
 70
     1
102
RTVSPost2010Prop32
280
     0
102
RTVSPost2010PropOp32
 70
     1
102
RTVSPost2010Prop33
280
     0
102
RTVSPost2010PropOp33
 70
     1
102
RTVSPost2010Prop34
280
     0
102
RTVSPost2010PropOp34
 70
     1
102
RTVSPost2010Prop35
280
     0
102
RTVSPost2010PropOp35
 70
     1
102
RTVSPost2010Prop36
280
     0
102
RTVSPost2010PropOp36
 70
     1
102
RTVSPost2010Prop37
 90
       50
102
RTVSPost2010PropOp37
 70
     1
102
RTVSPost2010Prop38
140
0.0
102
RTVSPost2010PropOp38
 70
     1
102
RTVSPost2010Prop39
140
1.0
102
RTVSPost2010PropOp39
 70
     1
102
RTVSPost2010Prop40
 90
        0
102
RTVSPost2010PropOp40
 70
     1
102
RTVSPost2010Prop41ColorIndex
 90
       18
102
RTVSPost2010Prop41ColorRGB
 90
        0
102
RTVSPost2010PropOp41
 70
     1
102
RTVSPost2010Prop42
 90
       50
102
RTVSPost2010PropOp42
 70
     1
102
RTVSPost2010Prop43
 90
        3
102
RTVSPost2010PropOp43
 70
     1
102
RTVSPost2010Prop44ColorIndex
 90
        5
102
RTVSPost2010Prop44ColorRGB
 90
      255
102
RTVSPost2010PropOp44
 70
     1
102
RTVSPost2010Prop45
280
     0
102
RTVSPost2010PropOp45
 70
     1
102
RTVSPost2010Prop46
 90
       50
102
RTVSPost2010PropOp46
 70
     1
102
RTVSPost2010Prop47
 90
       50
102
RTVSPost2010PropOp47
 70
     1
102
RTVSPost2010Prop48
 90
       50
102
RTVSPost2010PropOp48
 70
     1
102
RTVSPost2010Prop49
280
     0
102
RTVSPost2010PropOp49
 70
     1
102
RTVSPost2010Prop50
 90
       50
102
RTVSPost2010PropOp50
 70
     1
102
RTVSPost2010Prop51ColorIndex
 90
      256
102
RTVSPost2010Prop51ColorRGB
 90
-16777216
102
RTVSPost2010PropOp51
 70
     0
102
RTVSPost2010Prop52
140
1.0
102
RTVSPost2010PropOp52
 70
     0
102
RTVSPost2010Prop53
 90
        2
102
RTVSPost2010PropOp53
 70
     1
102
RTVSPost2010Prop54
  1
strokes_ogs.tif
102
RTVSPost2010PropOp54
 70
     1
102
RTVSPost2010Prop55
280
     0
102
RTVSPost2010PropOp55
 70
     1
102
RTVSPost2010Prop56
140
1.0
102
RTVSPost2010PropOp56
 70
     1
102
RTVSPost2010Prop57
140
1.0
102
RTVSPost2010PropOp57
 70
     1
102
RTVSPropertyOp0
 70
     1
102
RTVSPropertyOp1
 70
     1
102
RTVSPropertyOp2
 70
     1
102
RTVSPropertyOp3
 70
     1
102
RTVSPropertyOp4
 70
     1
102
RTVSPropertyOp5
 70
     1
102
RTVSPropertyOp6
 70
     1
102
RTVSPropertyOp7
 70
     1
102
RTVSPropertyOp8
 70
     1
102
RTVSPropertyOp9
 70
     1
102
RTVSPropertyOp10
 70
     1
102
RTVSPropertyOp11
 70
     1
102
RTVSPropertyOp12
 70
     1
102
RTVSPropertyOp13
 70
     1
102
RTVSPropertyOp14
 70
     1
102
RTVSPropertyOp15
 70
     1
102
RTVSPropertyOp16
 70
     1
102
RTVSPropertyOp17
 70
     1
102
RTVSPropertyOp18
 70
     1
102
RTVSPropertyOp19
 70
     1
102
RTVSPropertyOp20
 70
     1
102
RTVSPropertyOp21
 70
     1
102
RTVSPropertyOp22
 70
     1
102
RTVSPropertyOp23
 70
     1
102
RTVSPropertyOp24
 70
     1
102
RTVSPropertyOp25
 70
     1
102
RTVSPropertyOp26
 70
     1
102
RTVSPropertyOp27
 70
     1
102
RTVSPropertyOp28
 70
     1
102
RTVSPropertyOp29
 70
     1
102
RTVSPropertyOp30
 70
     1
102
RTVSPropertyOp31
 70
     1
102
RTVSPropertyOp32
 70
     1
102
RTVSPropertyOp33
 70
     1
102
RTVSPropertyOp34
 70
     1
102
RTVSPropertyOp35
 70
     1
102
RTVSPropertyOp36
 70
     1
102
RTVSPropertyOp37
 70
     1
102
RTVSPropertyOp38
 70
     1
102
RTVSPropertyOp39
 70
     1
102
RTVSPropertyOp40
 70
     1
102
RTVSPropertyOp41
 70
     1
102
RTVSPropertyOp42
 70
     1
102
RTVSPropertyOp43
 70
     1
102
RTVSPropertyOp44
 70
     1
102
RTVSPropertyOp45
 70
     1
102
RTVSPropertyOp46
 70
     1
102
RTVSPropertyOp47
 70
     1
102
RTVSPropertyOp48
 70
     1
102
RTVSPropertyOp49
 70
     1
102
RTVSPropertyOp50
 70
     1
102
RTVSPropertyOp51
 70
     0
102
RTVSPropertyOp52
 70
     0
102
RTVSPropertyOp53
 70
     1
102
RTVSPropertyOp54
 70
     1
102
RTVSPropertyOp55
 70
     1
102
RTVSPropertyOp56
 70
     1
102
RTVSPropertyOp57
 70
     1
102
RTVSPropertyOp58
 70
     1
102
RTVSPropertyOp59
 70
     1
102
RTVSPropertyOp60
 70
     1
102
RTVSPropertyOp61
 70
     1
102
RTVSPropertyOp62
 70
     1
  0
XRECORD
  5
53A
102
{ACAD_REACTORS
330
539
102
}
330
539
100
AcDbXrecord
280
     1
102
RTVSPost2010Prop28
280
     0
102
RTVSPost2010PropOp28
 70
     1
102
RTVSPost2010Prop29
280
     1
102
RTVSPost2010PropOp29
 70
     1
102
RTVSPost2010Prop30
280
     1
102
RTVSPost2010PropOp30
 70
     1
102
RTVSPost2010Prop31
280
     0
102
RTVSPost2010PropOp31
 70
     1
102
RTVSPost2010Prop32
280
     0
102
RTVSPost2010PropOp32
 70
     1
102
RTVSPost2010Prop33
280
     0
102
RTVSPost2010PropOp33
 70
     1
102
RTVSPost2010Prop34
280
     0
102
RTVSPost2010PropOp34
 70
     1
102
RTVSPost2010Prop35
280
     0
102
RTVSPost2010PropOp35
 70
     1
102
RTVSPost2010Prop36
280
     0
102
RTVSPost2010PropOp36
 70
     1
102
RTVSPost2010Prop37
 90
       50
102
RTVSPost2010PropOp37
 70
     1
102
RTVSPost2010Prop38
140
0.0
102
RTVSPost2010PropOp38
 70
     1
102
RTVSPost2010Prop39
140
1.0
102
RTVSPost2010PropOp39
 70
     1
102
RTVSPost2010Prop40
 90
        0
102
RTVSPost2010PropOp40
 70
     1
102
RTVSPost2010Prop41ColorIndex
 90
       18
102
RTVSPost2010Prop41ColorRGB
 90
        0
102
RTVSPost2010PropOp41
 70
     1
102
RTVSPost2010Prop42
 90
       50
102
RTVSPost2010PropOp42
 70
     1
102
RTVSPost2010Prop43
 90
        3
102
RTVSPost2010PropOp43
 70
     1
102
RTVSPost2010Prop44ColorIndex
 90
        5
102
RTVSPost2010Prop44ColorRGB
 90
      255
102
RTVSPost2010PropOp44
 70
     1
102
RTVSPost2010Prop45
280
     0
102
RTVSPost2010PropOp45
 70
     1
102
RTVSPost2010Prop46
 90
       50
102
RTVSPost2010PropOp46
 70
     1
102
RTVSPost2010Prop47
 90
       50
102
RTVSPost2010PropOp47
 70
     1
102
RTVSPost2010Prop48
 90
       50
102
RTVSPost2010PropOp48
 70
     1
102
RTVSPost2010Prop49
280
     0
102
RTVSPost2010PropOp49
 70
     1
102
RTVSPost2010Prop50
 90
       50
102
RTVSPost2010PropOp50
 70
     1
102
RTVSPost2010Prop51ColorIndex
 90
      256
102
RTVSPost2010Prop51ColorRGB
 90
-16777216
102
RTVSPost2010PropOp51
 70
     0
102
RTVSPost2010Prop52
140
1.0
102
RTVSPost2010PropOp52
 70
     0
102
RTVSPost2010Prop53
 90
        2
102
RTVSPost2010PropOp53
 70
     1
102
RTVSPost2010Prop54
  1
strokes_ogs.tif
102
RTVSPost2010PropOp54
 70
     1
102
RTVSPost2010Prop55
280
     0
102
RTVSPost2010PropOp55
 70
     1
102
RTVSPost2010Prop56
140
1.0
102
RTVSPost2010PropOp56
 70
     1
102
RTVSPost2010Prop57
140
1.0
102
RTVSPost2010PropOp57
 70
     1
102
RTVSPropertyOp0
 70
     1
102
RTVSPropertyOp1
 70
     1
102
RTVSPropertyOp2
 70
     1
102
RTVSPropertyOp3
 70
     1
102
RTVSPropertyOp4
 70
     1
102
RTVSPropertyOp5
 70
     1
102
RTVSPropertyOp6
 70
     1
102
RTVSPropertyOp7
 70
     1
102
RTVSPropertyOp8
 70
     1
102
RTVSPropertyOp9
 70
     1
102
RTVSPropertyOp10
 70
     1
102
RTVSPropertyOp11
 70
     1
102
RTVSPropertyOp12
 70
     1
102
RTVSPropertyOp13
 70
     1
102
RTVSPropertyOp14
 70
     1
102
RTVSPropertyOp15
 70
     1
102
RTVSPropertyOp16
 70
     1
102
RTVSPropertyOp17
 70
     1
102
RTVSPropertyOp18
 70
     1
102
RTVSPropertyOp19
 70
     1
102
RTVSPropertyOp20
 70
     1
102
RTVSPropertyOp21
 70
     1
102
RTVSPropertyOp22
 70
     1
102
RTVSPropertyOp23
 70
     1
102
RTVSPropertyOp24
 70
     1
102
RTVSPropertyOp25
 70
     1
102
RTVSPropertyOp26
 70
     1
102
RTVSPropertyOp27
 70
     1
102
RTVSPropertyOp28
 70
     1
102
RTVSPropertyOp29
 70
     1
102
RTVSPropertyOp30
 70
     1
102
RTVSPropertyOp31
 70
     1
102
RTVSPropertyOp32
 70
     1
102
RTVSPropertyOp33
 70
     1
102
RTVSPropertyOp34
 70
     1
102
RTVSPropertyOp35
 70
     1
102
RTVSPropertyOp36
 70
     1
102
RTVSPropertyOp37
 70
     1
102
RTVSPropertyOp38
 70
     1
102
RTVSPropertyOp39
 70
     1
102
RTVSPropertyOp40
 70
     1
102
RTVSPropertyOp41
 70
     1
102
RTVSPropertyOp42
 70
     1
102
RTVSPropertyOp43
 70
     1
102
RTVSPropertyOp44
 70
     1
102
RTVSPropertyOp45
 70
     1
102
RTVSPropertyOp46
 70
     1
102
RTVSPropertyOp47
 70
     1
102
RTVSPropertyOp48
 70
     1
102
RTVSPropertyOp49
 70
     1
102
RTVSPropertyOp50
 70
     1
102
RTVSPropertyOp51
 70
     0
102
RTVSPropertyOp52
 70
     0
102
RTVSPropertyOp53
 70
     1
102
RTVSPropertyOp54
 70
     1
102
RTVSPropertyOp55
 70
     1
102
RTVSPropertyOp56
 70
     1
102
RTVSPropertyOp57
 70
     1
102
RTVSPropertyOp58
 70
     1
102
RTVSPropertyOp59
 70
     1
102
RTVSPropertyOp60
 70
     1
102
RTVSPropertyOp61
 70
     1
102
RTVSPropertyOp62
 70
     1
  0
XRECORD
  5
542
102
{ACAD_REACTORS
330
541
102
}
330
541
100
AcDbXrecord
280
     1
102
RTVSPost2010Prop28
280
     0
102
RTVSPost2010PropOp28
 70
     1
102
RTVSPost2010Prop29
280
     1
102
RTVSPost2010PropOp29
 70
     1
102
RTVSPost2010Prop30
280
     1
102
RTVSPost2010PropOp30
 70
     1
102
RTVSPost2010Prop31
280
     0
102
RTVSPost2010PropOp31
 70
     1
102
RTVSPost2010Prop32
280
     0
102
RTVSPost2010PropOp32
 70
     1
102
RTVSPost2010Prop33
280
     0
102
RTVSPost2010PropOp33
 70
     1
102
RTVSPost2010Prop34
280
     0
102
RTVSPost2010PropOp34
 70
     1
102
RTVSPost2010Prop35
280
     0
102
RTVSPost2010PropOp35
 70
     1
102
RTVSPost2010Prop36
280
     0
102
RTVSPost2010PropOp36
 70
     1
102
RTVSPost2010Prop37
 90
       50
102
RTVSPost2010PropOp37
 70
     1
102
RTVSPost2010Prop38
140
0.0
102
RTVSPost2010PropOp38
 70
     1
102
RTVSPost2010Prop39
140
1.0
102
RTVSPost2010PropOp39
 70
     1
102
RTVSPost2010Prop40
 90
        0
102
RTVSPost2010PropOp40
 70
     1
102
RTVSPost2010Prop41ColorIndex
 90
       18
102
RTVSPost2010Prop41ColorRGB
 90
        0
102
RTVSPost2010PropOp41
 70
     1
102
RTVSPost2010Prop42
 90
       50
102
RTVSPost2010PropOp42
 70
     1
102
RTVSPost2010Prop43
 90
        3
102
RTVSPost2010PropOp43
 70
     1
102
RTVSPost2010Prop44ColorIndex
 90
        5
102
RTVSPost2010Prop44ColorRGB
 90
      255
102
RTVSPost2010PropOp44
 70
     1
102
RTVSPost2010Prop45
280
     0
102
RTVSPost2010PropOp45
 70
     1
102
RTVSPost2010Prop46
 90
       50
102
RTVSPost2010PropOp46
 70
     1
102
RTVSPost2010Prop47
 90
       50
102
RTVSPost2010PropOp47
 70
     1
102
RTVSPost2010Prop48
 90
       50
102
RTVSPost2010PropOp48
 70
     1
102
RTVSPost2010Prop49
280
     0
102
RTVSPost2010PropOp49
 70
     1
102
RTVSPost2010Prop50
 90
       50
102
RTVSPost2010PropOp50
 70
     1
102
RTVSPost2010Prop51ColorIndex
 90
      256
102
RTVSPost2010Prop51ColorRGB
 90
-16777216
102
RTVSPost2010PropOp51
 70
     0
102
RTVSPost2010Prop52
140
1.0
102
RTVSPost2010PropOp52
 70
     0
102
RTVSPost2010Prop53
 90
        2
102
RTVSPost2010PropOp53
 70
     1
102
RTVSPost2010Prop54
  1
strokes_ogs.tif
102
RTVSPost2010PropOp54
 70
     1
102
RTVSPost2010Prop55
280
     0
102
RTVSPost2010PropOp55
 70
     1
102
RTVSPost2010Prop56
140
1.0
102
RTVSPost2010PropOp56
 70
     1
102
RTVSPost2010Prop57
140
1.0
102
RTVSPost2010PropOp57
 70
     1
102
RTVSPropertyOp0
 70
     1
102
RTVSPropertyOp1
 70
     1
102
RTVSPropertyOp2
 70
     1
102
RTVSPropertyOp3
 70
     1
102
RTVSPropertyOp4
 70
     1
102
RTVSPropertyOp5
 70
     1
102
RTVSPropertyOp6
 70
     1
102
RTVSPropertyOp7
 70
     1
102
RTVSPropertyOp8
 70
     1
102
RTVSPropertyOp9
 70
     1
102
RTVSPropertyOp10
 70
     1
102
RTVSPropertyOp11
 70
     1
102
RTVSPropertyOp12
 70
     1
102
RTVSPropertyOp13
 70
     1
102
RTVSPropertyOp14
 70
     1
102
RTVSPropertyOp15
 70
     1
102
RTVSPropertyOp16
 70
     1
102
RTVSPropertyOp17
 70
     1
102
RTVSPropertyOp18
 70
     1
102
RTVSPropertyOp19
 70
     1
102
RTVSPropertyOp20
 70
     1
102
RTVSPropertyOp21
 70
     1
102
RTVSPropertyOp22
 70
     1
102
RTVSPropertyOp23
 70
     1
102
RTVSPropertyOp24
 70
     1
102
RTVSPropertyOp25
 70
     1
102
RTVSPropertyOp26
 70
     1
102
RTVSPropertyOp27
 70
     1
102
RTVSPropertyOp28
 70
     1
102
RTVSPropertyOp29
 70
     1
102
RTVSPropertyOp30
 70
     1
102
RTVSPropertyOp31
 70
     1
102
RTVSPropertyOp32
 70
     1
102
RTVSPropertyOp33
 70
     1
102
RTVSPropertyOp34
 70
     1
102
RTVSPropertyOp35
 70
     1
102
RTVSPropertyOp36
 70
     1
102
RTVSPropertyOp37
 70
     1
102
RTVSPropertyOp38
 70
     1
102
RTVSPropertyOp39
 70
     1
102
RTVSPropertyOp40
 70
     1
102
RTVSPropertyOp41
 70
     1
102
RTVSPropertyOp42
 70
     1
102
RTVSPropertyOp43
 70
     1
102
RTVSPropertyOp44
 70
     1
102
RTVSPropertyOp45
 70
     1
102
RTVSPropertyOp46
 70
     1
102
RTVSPropertyOp47
 70
     1
102
RTVSPropertyOp48
 70
     1
102
RTVSPropertyOp49
 70
     1
102
RTVSPropertyOp50
 70
     1
102
RTVSPropertyOp51
 70
     0
102
RTVSPropertyOp52
 70
     0
102
RTVSPropertyOp53
 70
     1
102
RTVSPropertyOp54
 70
     1
102
RTVSPropertyOp55
 70
     1
102
RTVSPropertyOp56
 70
     1
102
RTVSPropertyOp57
 70
     1
102
RTVSPropertyOp58
 70
     1
102
RTVSPropertyOp59
 70
     1
102
RTVSPropertyOp60
 70
     1
102
RTVSPropertyOp61
 70
     1
102
RTVSPropertyOp62
 70
     1
  0
XRECORD
  5
534
102
{ACAD_REACTORS
330
533
102
}
330
533
100
AcDbXrecord
280
     1
102
RTVSPost2010Prop28
280
     0
102
RTVSPost2010PropOp28
 70
     1
102
RTVSPost2010Prop29
280
     1
102
RTVSPost2010PropOp29
 70
     1
102
RTVSPost2010Prop30
280
     1
102
RTVSPost2010PropOp30
 70
     1
102
RTVSPost2010Prop31
280
     0
102
RTVSPost2010PropOp31
 70
     1
102
RTVSPost2010Prop32
280
     0
102
RTVSPost2010PropOp32
 70
     1
102
RTVSPost2010Prop33
280
     0
102
RTVSPost2010PropOp33
 70
     1
102
RTVSPost2010Prop34
280
     0
102
RTVSPost2010PropOp34
 70
     1
102
RTVSPost2010Prop35
280
     0
102
RTVSPost2010PropOp35
 70
     1
102
RTVSPost2010Prop36
280
     0
102
RTVSPost2010PropOp36
 70
     1
102
RTVSPost2010Prop37
 90
       50
102
RTVSPost2010PropOp37
 70
     1
102
RTVSPost2010Prop38
140
0.0
102
RTVSPost2010PropOp38
 70
     1
102
RTVSPost2010Prop39
140
1.0
102
RTVSPost2010PropOp39
 70
     1
102
RTVSPost2010Prop40
 90
        0
102
RTVSPost2010PropOp40
 70
     1
102
RTVSPost2010Prop41ColorIndex
 90
       18
102
RTVSPost2010Prop41ColorRGB
 90
        0
102
RTVSPost2010PropOp41
 70
     1
102
RTVSPost2010Prop42
 90
       50
102
RTVSPost2010PropOp42
 70
     1
102
RTVSPost2010Prop43
 90
        3
102
RTVSPost2010PropOp43
 70
     1
102
RTVSPost2010Prop44ColorIndex
 90
        5
102
RTVSPost2010Prop44ColorRGB
 90
      255
102
RTVSPost2010PropOp44
 70
     1
102
RTVSPost2010Prop45
280
     0
102
RTVSPost2010PropOp45
 70
     1
102
RTVSPost2010Prop46
 90
       50
102
RTVSPost2010PropOp46
 70
     1
102
RTVSPost2010Prop47
 90
       50
102
RTVSPost2010PropOp47
 70
     1
102
RTVSPost2010Prop48
 90
       50
102
RTVSPost2010PropOp48
 70
     1
102
RTVSPost2010Prop49
280
     0
102
RTVSPost2010PropOp49
 70
     1
102
RTVSPost2010Prop50
 90
       50
102
RTVSPost2010PropOp50
 70
     1
102
RTVSPost2010Prop51ColorIndex
 90
      256
102
RTVSPost2010Prop51ColorRGB
 90
-16777216
102
RTVSPost2010PropOp51
 70
     0
102
RTVSPost2010Prop52
140
1.0
102
RTVSPost2010PropOp52
 70
     0
102
RTVSPost2010Prop53
 90
        2
102
RTVSPost2010PropOp53
 70
     1
102
RTVSPost2010Prop54
  1
strokes_ogs.tif
102
RTVSPost2010PropOp54
 70
     1
102
RTVSPost2010Prop55
280
     0
102
RTVSPost2010PropOp55
 70
     1
102
RTVSPost2010Prop56
140
1.0
102
RTVSPost2010PropOp56
 70
     1
102
RTVSPost2010Prop57
140
1.0
102
RTVSPost2010PropOp57
 70
     1
102
RTVSPropertyOp0
 70
     1
102
RTVSPropertyOp1
 70
     1
102
RTVSPropertyOp2
 70
     1
102
RTVSPropertyOp3
 70
     1
102
RTVSPropertyOp4
 70
     1
102
RTVSPropertyOp5
 70
     1
102
RTVSPropertyOp6
 70
     1
102
RTVSPropertyOp7
 70
     1
102
RTVSPropertyOp8
 70
     1
102
RTVSPropertyOp9
 70
     1
102
RTVSPropertyOp10
 70
     1
102
RTVSPropertyOp11
 70
     1
102
RTVSPropertyOp12
 70
     1
102
RTVSPropertyOp13
 70
     1
102
RTVSPropertyOp14
 70
     1
102
RTVSPropertyOp15
 70
     1
102
RTVSPropertyOp16
 70
     1
102
RTVSPropertyOp17
 70
     1
102
RTVSPropertyOp18
 70
     1
102
RTVSPropertyOp19
 70
     1
102
RTVSPropertyOp20
 70
     1
102
RTVSPropertyOp21
 70
     1
102
RTVSPropertyOp22
 70
     1
102
RTVSPropertyOp23
 70
     1
102
RTVSPropertyOp24
 70
     1
102
RTVSPropertyOp25
 70
     1
102
RTVSPropertyOp26
 70
     1
102
RTVSPropertyOp27
 70
     1
102
RTVSPropertyOp28
 70
     1
102
RTVSPropertyOp29
 70
     1
102
RTVSPropertyOp30
 70
     1
102
RTVSPropertyOp31
 70
     1
102
RTVSPropertyOp32
 70
     1
102
RTVSPropertyOp33
 70
     1
102
RTVSPropertyOp34
 70
     1
102
RTVSPropertyOp35
 70
     1
102
RTVSPropertyOp36
 70
     1
102
RTVSPropertyOp37
 70
     1
102
RTVSPropertyOp38
 70
     1
102
RTVSPropertyOp39
 70
     1
102
RTVSPropertyOp40
 70
     1
102
RTVSPropertyOp41
 70
     1
102
RTVSPropertyOp42
 70
     1
102
RTVSPropertyOp43
 70
     1
102
RTVSPropertyOp44
 70
     1
102
RTVSPropertyOp45
 70
     1
102
RTVSPropertyOp46
 70
     1
102
RTVSPropertyOp47
 70
     1
102
RTVSPropertyOp48
 70
     1
102
RTVSPropertyOp49
 70
     1
102
RTVSPropertyOp50
 70
     1
102
RTVSPropertyOp51
 70
     0
102
RTVSPropertyOp52
 70
     0
102
RTVSPropertyOp53
 70
     1
102
RTVSPropertyOp54
 70
     1
102
RTVSPropertyOp55
 70
     1
102
RTVSPropertyOp56
 70
     1
102
RTVSPropertyOp57
 70
     1
102
RTVSPropertyOp58
 70
     1
102
RTVSPropertyOp59
 70
     1
102
RTVSPropertyOp60
 70
     1
102
RTVSPropertyOp61
 70
     1
102
RTVSPropertyOp62
 70
     1
  0
XRECORD
  5
538
102
{ACAD_REACTORS
330
537
102
}
330
537
100
AcDbXrecord
280
     1
102
RTVSPost2010Prop28
280
     0
102
RTVSPost2010PropOp28
 70
     1
102
RTVSPost2010Prop29
280
     1
102
RTVSPost2010PropOp29
 70
     1
102
RTVSPost2010Prop30
280
     1
102
RTVSPost2010PropOp30
 70
     1
102
RTVSPost2010Prop31
280
     0
102
RTVSPost2010PropOp31
 70
     1
102
RTVSPost2010Prop32
280
     0
102
RTVSPost2010PropOp32
 70
     1
102
RTVSPost2010Prop33
280
     0
102
RTVSPost2010PropOp33
 70
     1
102
RTVSPost2010Prop34
280
     0
102
RTVSPost2010PropOp34
 70
     1
102
RTVSPost2010Prop35
280
     0
102
RTVSPost2010PropOp35
 70
     1
102
RTVSPost2010Prop36
280
     0
102
RTVSPost2010PropOp36
 70
     1
102
RTVSPost2010Prop37
 90
       50
102
RTVSPost2010PropOp37
 70
     1
102
RTVSPost2010Prop38
140
0.0
102
RTVSPost2010PropOp38
 70
     1
102
RTVSPost2010Prop39
140
1.0
102
RTVSPost2010PropOp39
 70
     1
102
RTVSPost2010Prop40
 90
        0
102
RTVSPost2010PropOp40
 70
     1
102
RTVSPost2010Prop41ColorIndex
 90
       18
102
RTVSPost2010Prop41ColorRGB
 90
        0
102
RTVSPost2010PropOp41
 70
     1
102
RTVSPost2010Prop42
 90
       50
102
RTVSPost2010PropOp42
 70
     1
102
RTVSPost2010Prop43
 90
        3
102
RTVSPost2010PropOp43
 70
     1
102
RTVSPost2010Prop44ColorIndex
 90
        5
102
RTVSPost2010Prop44ColorRGB
 90
      255
102
RTVSPost2010PropOp44
 70
     1
102
RTVSPost2010Prop45
280
     0
102
RTVSPost2010PropOp45
 70
     1
102
RTVSPost2010Prop46
 90
       50
102
RTVSPost2010PropOp46
 70
     1
102
RTVSPost2010Prop47
 90
       50
102
RTVSPost2010PropOp47
 70
     1
102
RTVSPost2010Prop48
 90
       50
102
RTVSPost2010PropOp48
 70
     1
102
RTVSPost2010Prop49
280
     0
102
RTVSPost2010PropOp49
 70
     1
102
RTVSPost2010Prop50
 90
       50
102
RTVSPost2010PropOp50
 70
     1
102
RTVSPost2010Prop51ColorIndex
 90
      256
102
RTVSPost2010Prop51ColorRGB
 90
-16777216
102
RTVSPost2010PropOp51
 70
     0
102
RTVSPost2010Prop52
140
1.0
102
RTVSPost2010PropOp52
 70
     0
102
RTVSPost2010Prop53
 90
        2
102
RTVSPost2010PropOp53
 70
     1
102
RTVSPost2010Prop54
  1
strokes_ogs.tif
102
RTVSPost2010PropOp54
 70
     1
102
RTVSPost2010Prop55
280
     0
102
RTVSPost2010PropOp55
 70
     1
102
RTVSPost2010Prop56
140
1.0
102
RTVSPost2010PropOp56
 70
     1
102
RTVSPost2010Prop57
140
1.0
102
RTVSPost2010PropOp57
 70
     1
102
RTVSPropertyOp0
 70
     1
102
RTVSPropertyOp1
 70
     1
102
RTVSPropertyOp2
 70
     1
102
RTVSPropertyOp3
 70
     1
102
RTVSPropertyOp4
 70
     1
102
RTVSPropertyOp5
 70
     1
102
RTVSPropertyOp6
 70
     1
102
RTVSPropertyOp7
 70
     1
102
RTVSPropertyOp8
 70
     1
102
RTVSPropertyOp9
 70
     1
102
RTVSPropertyOp10
 70
     1
102
RTVSPropertyOp11
 70
     1
102
RTVSPropertyOp12
 70
     1
102
RTVSPropertyOp13
 70
     1
102
RTVSPropertyOp14
 70
     1
102
RTVSPropertyOp15
 70
     1
102
RTVSPropertyOp16
 70
     1
102
RTVSPropertyOp17
 70
     1
102
RTVSPropertyOp18
 70
     1
102
RTVSPropertyOp19
 70
     1
102
RTVSPropertyOp20
 70
     1
102
RTVSPropertyOp21
 70
     1
102
RTVSPropertyOp22
 70
     1
102
RTVSPropertyOp23
 70
     1
102
RTVSPropertyOp24
 70
     1
102
RTVSPropertyOp25
 70
     1
102
RTVSPropertyOp26
 70
     1
102
RTVSPropertyOp27
 70
     1
102
RTVSPropertyOp28
 70
     1
102
RTVSPropertyOp29
 70
     1
102
RTVSPropertyOp30
 70
     1
102
RTVSPropertyOp31
 70
     1
102
RTVSPropertyOp32
 70
     1
102
RTVSPropertyOp33
 70
     1
102
RTVSPropertyOp34
 70
     1
102
RTVSPropertyOp35
 70
     1
102
RTVSPropertyOp36
 70
     1
102
RTVSPropertyOp37
 70
     1
102
RTVSPropertyOp38
 70
     1
102
RTVSPropertyOp39
 70
     1
102
RTVSPropertyOp40
 70
     1
102
RTVSPropertyOp41
 70
     1
102
RTVSPropertyOp42
 70
     1
102
RTVSPropertyOp43
 70
     1
102
RTVSPropertyOp44
 70
     1
102
RTVSPropertyOp45
 70
     1
102
RTVSPropertyOp46
 70
     1
102
RTVSPropertyOp47
 70
     1
102
RTVSPropertyOp48
 70
     1
102
RTVSPropertyOp49
 70
     1
102
RTVSPropertyOp50
 70
     1
102
RTVSPropertyOp51
 70
     0
102
RTVSPropertyOp52
 70
     0
102
RTVSPropertyOp53
 70
     1
102
RTVSPropertyOp54
 70
     1
102
RTVSPropertyOp55
 70
     1
102
RTVSPropertyOp56
 70
     1
102
RTVSPropertyOp57
 70
     1
102
RTVSPropertyOp58
 70
     1
102
RTVSPropertyOp59
 70
     1
102
RTVSPropertyOp60
 70
     1
102
RTVSPropertyOp61
 70
     1
102
RTVSPropertyOp62
 70
     1
  0
XRECORD
  5
552
102
{ACAD_REACTORS
330
551
102
}
330
551
100
AcDbXrecord
280
     1
102
RTVSPost2010Prop28
280
     0
102
RTVSPost2010PropOp28
 70
     1
102
RTVSPost2010Prop29
280
     1
102
RTVSPost2010PropOp29
 70
     1
102
RTVSPost2010Prop30
280
     1
102
RTVSPost2010PropOp30
 70
     1
102
RTVSPost2010Prop31
280
     0
102
RTVSPost2010PropOp31
 70
     1
102
RTVSPost2010Prop32
280
     0
102
RTVSPost2010PropOp32
 70
     1
102
RTVSPost2010Prop33
280
     0
102
RTVSPost2010PropOp33
 70
     1
102
RTVSPost2010Prop34
280
     0
102
RTVSPost2010PropOp34
 70
     1
102
RTVSPost2010Prop35
280
     0
102
RTVSPost2010PropOp35
 70
     1
102
RTVSPost2010Prop36
280
     0
102
RTVSPost2010PropOp36
 70
     1
102
RTVSPost2010Prop37
 90
       50
102
RTVSPost2010PropOp37
 70
     0
102
RTVSPost2010Prop38
140
0.0
102
RTVSPost2010PropOp38
 70
     0
102
RTVSPost2010Prop39
140
1.0
102
RTVSPost2010PropOp39
 70
     0
102
RTVSPost2010Prop40
 90
        0
102
RTVSPost2010PropOp40
 70
     0
102
RTVSPost2010Prop41ColorIndex
 90
       18
102
RTVSPost2010Prop41ColorRGB
 90
        0
102
RTVSPost2010PropOp41
 70
     0
102
RTVSPost2010Prop42
 90
       50
102
RTVSPost2010PropOp42
 70
     0
102
RTVSPost2010Prop43
 90
        3
102
RTVSPost2010PropOp43
 70
     0
102
RTVSPost2010Prop44ColorIndex
 90
        5
102
RTVSPost2010Prop44ColorRGB
 90
      255
102
RTVSPost2010PropOp44
 70
     0
102
RTVSPost2010Prop45
280
     0
102
RTVSPost2010PropOp45
 70
     1
102
RTVSPost2010Prop46
 90
       50
102
RTVSPost2010PropOp46
 70
     0
102
RTVSPost2010Prop47
 90
       50
102
RTVSPost2010PropOp47
 70
     0
102
RTVSPost2010Prop48
 90
       50
102
RTVSPost2010PropOp48
 70
     0
102
RTVSPost2010Prop49
280
     0
102
RTVSPost2010PropOp49
 70
     1
102
RTVSPost2010Prop50
 90
       50
102
RTVSPost2010PropOp50
 70
     0
102
RTVSPost2010Prop51ColorIndex
 90
      256
102
RTVSPost2010Prop51ColorRGB
 90
-16777216
102
RTVSPost2010PropOp51
 70
     0
102
RTVSPost2010Prop52
140
1.0
102
RTVSPost2010PropOp52
 70
     0
102
RTVSPost2010Prop53
 90
        2
102
RTVSPost2010PropOp53
 70
     0
102
RTVSPost2010Prop54
  1
strokes_ogs.tif
102
RTVSPost2010PropOp54
 70
     0
102
RTVSPost2010Prop55
280
     0
102
RTVSPost2010PropOp55
 70
     1
102
RTVSPost2010Prop56
140
1.0
102
RTVSPost2010PropOp56
 70
     0
102
RTVSPost2010Prop57
140
1.0
102
RTVSPost2010PropOp57
 70
     0
102
RTVSPropertyOp0
 70
     0
102
RTVSPropertyOp1
 70
     0
102
RTVSPropertyOp2
 70
     0
102
RTVSPropertyOp3
 70
     0
102
RTVSPropertyOp4
 70
     0
102
RTVSPropertyOp5
 70
     0
102
RTVSPropertyOp6
 70
     0
102
RTVSPropertyOp7
 70
     0
102
RTVSPropertyOp8
 70
     0
102
RTVSPropertyOp9
 70
     0
102
RTVSPropertyOp10
 70
     0
102
RTVSPropertyOp11
 70
     0
102
RTVSPropertyOp12
 70
     0
102
RTVSPropertyOp13
 70
     0
102
RTVSPropertyOp14
 70
     2
102
RTVSPropertyOp15
 70
     0
102
RTVSPropertyOp16
 70
     0
102
RTVSPropertyOp17
 70
     0
102
RTVSPropertyOp18
 70
     0
102
RTVSPropertyOp19
 70
     0
102
RTVSPropertyOp20
 70
     0
102
RTVSPropertyOp21
 70
     0
102
RTVSPropertyOp22
 70
     0
102
RTVSPropertyOp23
 70
     0
102
RTVSPropertyOp24
 70
     0
102
RTVSPropertyOp25
 70
     0
102
RTVSPropertyOp26
 70
     0
102
RTVSPropertyOp27
 70
     0
102
RTVSPropertyOp28
 70
     1
102
RTVSPropertyOp29
 70
     1
102
RTVSPropertyOp30
 70
     1
102
RTVSPropertyOp31
 70
     1
102
RTVSPropertyOp32
 70
     1
102
RTVSPropertyOp33
 70
     1
102
RTVSPropertyOp34
 70
     1
102
RTVSPropertyOp35
 70
     1
102
RTVSPropertyOp36
 70
     1
102
RTVSPropertyOp37
 70
     0
102
RTVSPropertyOp38
 70
     0
102
RTVSPropertyOp39
 70
     0
102
RTVSPropertyOp40
 70
     0
102
RTVSPropertyOp41
 70
     0
102
RTVSPropertyOp42
 70
     0
102
RTVSPropertyOp43
 70
     0
102
RTVSPropertyOp44
 70
     0
102
RTVSPropertyOp45
 70
     1
102
RTVSPropertyOp46
 70
     0
102
RTVSPropertyOp47
 70
     0
102
RTVSPropertyOp48
 70
     0
102
RTVSPropertyOp49
 70
     1
102
RTVSPropertyOp50
 70
     0
102
RTVSPropertyOp51
 70
     0
102
RTVSPropertyOp52
 70
     0
102
RTVSPropertyOp53
 70
     0
102
RTVSPropertyOp54
 70
     0
102
RTVSPropertyOp55
 70
     1
102
RTVSPropertyOp56
 70
     0
102
RTVSPropertyOp57
 70
     0
102
RTVSPropertyOp58
 70
     0
102
RTVSPropertyOp59
 70
     0
102
RTVSPropertyOp60
 70
     0
102
RTVSPropertyOp61
 70
     0
102
RTVSPropertyOp62
 70
     0
  0
XRECORD
  5
540
102
{ACAD_REACTORS
330
53F
102
}
330
53F
100
AcDbXrecord
280
     1
102
RTVSPost2010Prop28
280
     0
102
RTVSPost2010PropOp28
 70
     1
102
RTVSPost2010Prop29
280
     1
102
RTVSPost2010PropOp29
 70
     1
102
RTVSPost2010Prop30
280
     1
102
RTVSPost2010PropOp30
 70
     1
102
RTVSPost2010Prop31
280
     0
102
RTVSPost2010PropOp31
 70
     1
102
RTVSPost2010Prop32
280
     0
102
RTVSPost2010PropOp32
 70
     1
102
RTVSPost2010Prop33
280
     0
102
RTVSPost2010PropOp33
 70
     1
102
RTVSPost2010Prop34
280
     0
102
RTVSPost2010PropOp34
 70
     1
102
RTVSPost2010Prop35
280
     0
102
RTVSPost2010PropOp35
 70
     1
102
RTVSPost2010Prop36
280
     0
102
RTVSPost2010PropOp36
 70
     1
102
RTVSPost2010Prop37
 90
       50
102
RTVSPost2010PropOp37
 70
     1
102
RTVSPost2010Prop38
140
0.0
102
RTVSPost2010PropOp38
 70
     1
102
RTVSPost2010Prop39
140
1.0
102
RTVSPost2010PropOp39
 70
     1
102
RTVSPost2010Prop40
 90
        0
102
RTVSPost2010PropOp40
 70
     1
102
RTVSPost2010Prop41ColorIndex
 90
       18
102
RTVSPost2010Prop41ColorRGB
 90
        0
102
RTVSPost2010PropOp41
 70
     1
102
RTVSPost2010Prop42
 90
       50
102
RTVSPost2010PropOp42
 70
     1
102
RTVSPost2010Prop43
 90
        3
102
RTVSPost2010PropOp43
 70
     1
102
RTVSPost2010Prop44ColorIndex
 90
        5
102
RTVSPost2010Prop44ColorRGB
 90
      255
102
RTVSPost2010PropOp44
 70
     1
102
RTVSPost2010Prop45
280
     0
102
RTVSPost2010PropOp45
 70
     1
102
RTVSPost2010Prop46
 90
       50
102
RTVSPost2010PropOp46
 70
     1
102
RTVSPost2010Prop47
 90
       50
102
RTVSPost2010PropOp47
 70
     1
102
RTVSPost2010Prop48
 90
       50
102
RTVSPost2010PropOp48
 70
     1
102
RTVSPost2010Prop49
280
     0
102
RTVSPost2010PropOp49
 70
     1
102
RTVSPost2010Prop50
 90
       50
102
RTVSPost2010PropOp50
 70
     1
102
RTVSPost2010Prop51ColorIndex
 90
      256
102
RTVSPost2010Prop51ColorRGB
 90
-16777216
102
RTVSPost2010PropOp51
 70
     0
102
RTVSPost2010Prop52
140
1.0
102
RTVSPost2010PropOp52
 70
     0
102
RTVSPost2010Prop53
 90
        2
102
RTVSPost2010PropOp53
 70
     1
102
RTVSPost2010Prop54
  1
strokes_ogs.tif
102
RTVSPost2010PropOp54
 70
     1
102
RTVSPost2010Prop55
280
     0
102
RTVSPost2010PropOp55
 70
     1
102
RTVSPost2010Prop56
140
1.0
102
RTVSPost2010PropOp56
 70
     1
102
RTVSPost2010Prop57
140
1.0
102
RTVSPost2010PropOp57
 70
     1
102
RTVSPropertyOp0
 70
     1
102
RTVSPropertyOp1
 70
     1
102
RTVSPropertyOp2
 70
     1
102
RTVSPropertyOp3
 70
     1
102
RTVSPropertyOp4
 70
     1
102
RTVSPropertyOp5
 70
     1
102
RTVSPropertyOp6
 70
     1
102
RTVSPropertyOp7
 70
     1
102
RTVSPropertyOp8
 70
     1
102
RTVSPropertyOp9
 70
     1
102
RTVSPropertyOp10
 70
     1
102
RTVSPropertyOp11
 70
     1
102
RTVSPropertyOp12
 70
     1
102
RTVSPropertyOp13
 70
     1
102
RTVSPropertyOp14
 70
     1
102
RTVSPropertyOp15
 70
     1
102
RTVSPropertyOp16
 70
     1
102
RTVSPropertyOp17
 70
     1
102
RTVSPropertyOp18
 70
     1
102
RTVSPropertyOp19
 70
     1
102
RTVSPropertyOp20
 70
     1
102
RTVSPropertyOp21
 70
     1
102
RTVSPropertyOp22
 70
     1
102
RTVSPropertyOp23
 70
     1
102
RTVSPropertyOp24
 70
     1
102
RTVSPropertyOp25
 70
     1
102
RTVSPropertyOp26
 70
     1
102
RTVSPropertyOp27
 70
     1
102
RTVSPropertyOp28
 70
     1
102
RTVSPropertyOp29
 70
     1
102
RTVSPropertyOp30
 70
     1
102
RTVSPropertyOp31
 70
     1
102
RTVSPropertyOp32
 70
     1
102
RTVSPropertyOp33
 70
     1
102
RTVSPropertyOp34
 70
     1
102
RTVSPropertyOp35
 70
     1
102
RTVSPropertyOp36
 70
     1
102
RTVSPropertyOp37
 70
     1
102
RTVSPropertyOp38
 70
     1
102
RTVSPropertyOp39
 70
     1
102
RTVSPropertyOp40
 70
     1
102
RTVSPropertyOp41
 70
     1
102
RTVSPropertyOp42
 70
     1
102
RTVSPropertyOp43
 70
     1
102
RTVSPropertyOp44
 70
     1
102
RTVSPropertyOp45
 70
     1
102
RTVSPropertyOp46
 70
     1
102
RTVSPropertyOp47
 70
     1
102
RTVSPropertyOp48
 70
     1
102
RTVSPropertyOp49
 70
     1
102
RTVSPropertyOp50
 70
     1
102
RTVSPropertyOp51
 70
     0
102
RTVSPropertyOp52
 70
     0
102
RTVSPropertyOp53
 70
     1
102
RTVSPropertyOp54
 70
     1
102
RTVSPropertyOp55
 70
     1
102
RTVSPropertyOp56
 70
     1
102
RTVSPropertyOp57
 70
     1
102
RTVSPropertyOp58
 70
     1
102
RTVSPropertyOp59
 70
     1
102
RTVSPropertyOp60
 70
     1
102
RTVSPropertyOp61
 70
     1
102
RTVSPropertyOp62
 70
     1
  0
XRECORD
  5
524
102
{ACAD_REACTORS
330
523
102
}
330
523
100
AcDbXrecord
280
     1
102
RTVSPost2010Prop28
280
     0
102
RTVSPost2010PropOp28
 70
     1
102
RTVSPost2010Prop29
280
     1
102
RTVSPost2010PropOp29
 70
     1
102
RTVSPost2010Prop30
280
     1
102
RTVSPost2010PropOp30
 70
     1
102
RTVSPost2010Prop31
280
     0
102
RTVSPost2010PropOp31
 70
     1
102
RTVSPost2010Prop32
280
     0
102
RTVSPost2010PropOp32
 70
     1
102
RTVSPost2010Prop33
280
     0
102
RTVSPost2010PropOp33
 70
     1
102
RTVSPost2010Prop34
280
     0
102
RTVSPost2010PropOp34
 70
     1
102
RTVSPost2010Prop35
280
     0
102
RTVSPost2010PropOp35
 70
     1
102
RTVSPost2010Prop36
280
     0
102
RTVSPost2010PropOp36
 70
     1
102
RTVSPost2010Prop37
 90
       50
102
RTVSPost2010PropOp37
 70
     1
102
RTVSPost2010Prop38
140
0.0
102
RTVSPost2010PropOp38
 70
     1
102
RTVSPost2010Prop39
140
1.0
102
RTVSPost2010PropOp39
 70
     1
102
RTVSPost2010Prop40
 90
        0
102
RTVSPost2010PropOp40
 70
     1
102
RTVSPost2010Prop41ColorIndex
 90
       18
102
RTVSPost2010Prop41ColorRGB
 90
        0
102
RTVSPost2010PropOp41
 70
     1
102
RTVSPost2010Prop42
 90
       50
102
RTVSPost2010PropOp42
 70
     1
102
RTVSPost2010Prop43
 90
        3
102
RTVSPost2010PropOp43
 70
     1
102
RTVSPost2010Prop44ColorIndex
 90
        5
102
RTVSPost2010Prop44ColorRGB
 90
      255
102
RTVSPost2010PropOp44
 70
     1
102
RTVSPost2010Prop45
280
     0
102
RTVSPost2010PropOp45
 70
     1
102
RTVSPost2010Prop46
 90
       50
102
RTVSPost2010PropOp46
 70
     1
102
RTVSPost2010Prop47
 90
       50
102
RTVSPost2010PropOp47
 70
     1
102
RTVSPost2010Prop48
 90
       50
102
RTVSPost2010PropOp48
 70
     1
102
RTVSPost2010Prop49
280
     0
102
RTVSPost2010PropOp49
 70
     1
102
RTVSPost2010Prop50
 90
       50
102
RTVSPost2010PropOp50
 70
     1
102
RTVSPost2010Prop51ColorIndex
 90
      256
102
RTVSPost2010Prop51ColorRGB
 90
-16777216
102
RTVSPost2010PropOp51
 70
     0
102
RTVSPost2010Prop52
140
1.0
102
RTVSPost2010PropOp52
 70
     0
102
RTVSPost2010Prop53
 90
        2
102
RTVSPost2010PropOp53
 70
     1
102
RTVSPost2010Prop54
  1
strokes_ogs.tif
102
RTVSPost2010PropOp54
 70
     1
102
RTVSPost2010Prop55
280
     0
102
RTVSPost2010PropOp55
 70
     1
102
RTVSPost2010Prop56
140
1.0
102
RTVSPost2010PropOp56
 70
     1
102
RTVSPost2010Prop57
140
1.0
102
RTVSPost2010PropOp57
 70
     1
102
RTVSPropertyOp0
 70
     1
102
RTVSPropertyOp1
 70
     1
102
RTVSPropertyOp2
 70
     1
102
RTVSPropertyOp3
 70
     1
102
RTVSPropertyOp4
 70
     1
102
RTVSPropertyOp5
 70
     1
102
RTVSPropertyOp6
 70
     1
102
RTVSPropertyOp7
 70
     1
102
RTVSPropertyOp8
 70
     1
102
RTVSPropertyOp9
 70
     1
102
RTVSPropertyOp10
 70
     1
102
RTVSPropertyOp11
 70
     1
102
RTVSPropertyOp12
 70
     1
102
RTVSPropertyOp13
 70
     1
102
RTVSPropertyOp14
 70
     1
102
RTVSPropertyOp15
 70
     1
102
RTVSPropertyOp16
 70
     1
102
RTVSPropertyOp17
 70
     1
102
RTVSPropertyOp18
 70
     1
102
RTVSPropertyOp19
 70
     1
102
RTVSPropertyOp20
 70
     1
102
RTVSPropertyOp21
 70
     1
102
RTVSPropertyOp22
 70
     1
102
RTVSPropertyOp23
 70
     1
102
RTVSPropertyOp24
 70
     1
102
RTVSPropertyOp25
 70
     1
102
RTVSPropertyOp26
 70
     1
102
RTVSPropertyOp27
 70
     1
102
RTVSPropertyOp28
 70
     1
102
RTVSPropertyOp29
 70
     1
102
RTVSPropertyOp30
 70
     1
102
RTVSPropertyOp31
 70
     1
102
RTVSPropertyOp32
 70
     1
102
RTVSPropertyOp33
 70
     1
102
RTVSPropertyOp34
 70
     1
102
RTVSPropertyOp35
 70
     1
102
RTVSPropertyOp36
 70
     1
102
RTVSPropertyOp37
 70
     1
102
RTVSPropertyOp38
 70
     1
102
RTVSPropertyOp39
 70
     1
102
RTVSPropertyOp40
 70
     1
102
RTVSPropertyOp41
 70
     1
102
RTVSPropertyOp42
 70
     1
102
RTVSPropertyOp43
 70
     1
102
RTVSPropertyOp44
 70
     1
102
RTVSPropertyOp45
 70
     1
102
RTVSPropertyOp46
 70
     1
102
RTVSPropertyOp47
 70
     1
102
RTVSPropertyOp48
 70
     1
102
RTVSPropertyOp49
 70
     1
102
RTVSPropertyOp50
 70
     1
102
RTVSPropertyOp51
 70
     0
102
RTVSPropertyOp52
 70
     0
102
RTVSPropertyOp53
 70
     1
102
RTVSPropertyOp54
 70
     1
102
RTVSPropertyOp55
 70
     1
102
RTVSPropertyOp56
 70
     1
102
RTVSPropertyOp57
 70
     1
102
RTVSPropertyOp58
 70
     1
102
RTVSPropertyOp59
 70
     1
102
RTVSPropertyOp60
 70
     1
102
RTVSPropertyOp61
 70
     1
102
RTVSPropertyOp62
 70
     1
  0
XRECORD
  5
526
102
{ACAD_REACTORS
330
525
102
}
330
525
100
AcDbXrecord
280
     1
102
RTVSPost2010Prop28
280
     0
102
RTVSPost2010PropOp28
 70
     1
102
RTVSPost2010Prop29
280
     1
102
RTVSPost2010PropOp29
 70
     1
102
RTVSPost2010Prop30
280
     1
102
RTVSPost2010PropOp30
 70
     1
102
RTVSPost2010Prop31
280
     0
102
RTVSPost2010PropOp31
 70
     1
102
RTVSPost2010Prop32
280
     0
102
RTVSPost2010PropOp32
 70
     1
102
RTVSPost2010Prop33
280
     0
102
RTVSPost2010PropOp33
 70
     1
102
RTVSPost2010Prop34
280
     0
102
RTVSPost2010PropOp34
 70
     1
102
RTVSPost2010Prop35
280
     0
102
RTVSPost2010PropOp35
 70
     1
102
RTVSPost2010Prop36
280
     0
102
RTVSPost2010PropOp36
 70
     1
102
RTVSPost2010Prop37
 90
       50
102
RTVSPost2010PropOp37
 70
     1
102
RTVSPost2010Prop38
140
0.0
102
RTVSPost2010PropOp38
 70
     1
102
RTVSPost2010Prop39
140
1.0
102
RTVSPost2010PropOp39
 70
     1
102
RTVSPost2010Prop40
 90
        0
102
RTVSPost2010PropOp40
 70
     1
102
RTVSPost2010Prop41ColorIndex
 90
       18
102
RTVSPost2010Prop41ColorRGB
 90
        0
102
RTVSPost2010PropOp41
 70
     1
102
RTVSPost2010Prop42
 90
       50
102
RTVSPost2010PropOp42
 70
     1
102
RTVSPost2010Prop43
 90
        3
102
RTVSPost2010PropOp43
 70
     1
102
RTVSPost2010Prop44ColorIndex
 90
        5
102
RTVSPost2010Prop44ColorRGB
 90
      255
102
RTVSPost2010PropOp44
 70
     1
102
RTVSPost2010Prop45
280
     0
102
RTVSPost2010PropOp45
 70
     1
102
RTVSPost2010Prop46
 90
       50
102
RTVSPost2010PropOp46
 70
     1
102
RTVSPost2010Prop47
 90
       50
102
RTVSPost2010PropOp47
 70
     1
102
RTVSPost2010Prop48
 90
       50
102
RTVSPost2010PropOp48
 70
     1
102
RTVSPost2010Prop49
280
     0
102
RTVSPost2010PropOp49
 70
     1
102
RTVSPost2010Prop50
 90
       50
102
RTVSPost2010PropOp50
 70
     1
102
RTVSPost2010Prop51ColorIndex
 90
      256
102
RTVSPost2010Prop51ColorRGB
 90
-16777216
102
RTVSPost2010PropOp51
 70
     0
102
RTVSPost2010Prop52
140
1.0
102
RTVSPost2010PropOp52
 70
     0
102
RTVSPost2010Prop53
 90
        2
102
RTVSPost2010PropOp53
 70
     1
102
RTVSPost2010Prop54
  1
strokes_ogs.tif
102
RTVSPost2010PropOp54
 70
     1
102
RTVSPost2010Prop55
280
     0
102
RTVSPost2010PropOp55
 70
     1
102
RTVSPost2010Prop56
140
1.0
102
RTVSPost2010PropOp56
 70
     1
102
RTVSPost2010Prop57
140
1.0
102
RTVSPost2010PropOp57
 70
     1
102
RTVSPropertyOp0
 70
     1
102
RTVSPropertyOp1
 70
     1
102
RTVSPropertyOp2
 70
     1
102
RTVSPropertyOp3
 70
     1
102
RTVSPropertyOp4
 70
     1
102
RTVSPropertyOp5
 70
     1
102
RTVSPropertyOp6
 70
     1
102
RTVSPropertyOp7
 70
     1
102
RTVSPropertyOp8
 70
     1
102
RTVSPropertyOp9
 70
     1
102
RTVSPropertyOp10
 70
     1
102
RTVSPropertyOp11
 70
     1
102
RTVSPropertyOp12
 70
     1
102
RTVSPropertyOp13
 70
     1
102
RTVSPropertyOp14
 70
     1
102
RTVSPropertyOp15
 70
     1
102
RTVSPropertyOp16
 70
     1
102
RTVSPropertyOp17
 70
     1
102
RTVSPropertyOp18
 70
     1
102
RTVSPropertyOp19
 70
     1
102
RTVSPropertyOp20
 70
     1
102
RTVSPropertyOp21
 70
     1
102
RTVSPropertyOp22
 70
     1
102
RTVSPropertyOp23
 70
     1
102
RTVSPropertyOp24
 70
     1
102
RTVSPropertyOp25
 70
     1
102
RTVSPropertyOp26
 70
     1
102
RTVSPropertyOp27
 70
     1
102
RTVSPropertyOp28
 70
     1
102
RTVSPropertyOp29
 70
     1
102
RTVSPropertyOp30
 70
     1
102
RTVSPropertyOp31
 70
     1
102
RTVSPropertyOp32
 70
     1
102
RTVSPropertyOp33
 70
     1
102
RTVSPropertyOp34
 70
     1
102
RTVSPropertyOp35
 70
     1
102
RTVSPropertyOp36
 70
     1
102
RTVSPropertyOp37
 70
     1
102
RTVSPropertyOp38
 70
     1
102
RTVSPropertyOp39
 70
     1
102
RTVSPropertyOp40
 70
     1
102
RTVSPropertyOp41
 70
     1
102
RTVSPropertyOp42
 70
     1
102
RTVSPropertyOp43
 70
     1
102
RTVSPropertyOp44
 70
     1
102
RTVSPropertyOp45
 70
     1
102
RTVSPropertyOp46
 70
     1
102
RTVSPropertyOp47
 70
     1
102
RTVSPropertyOp48
 70
     1
102
RTVSPropertyOp49
 70
     1
102
RTVSPropertyOp50
 70
     1
102
RTVSPropertyOp51
 70
     0
102
RTVSPropertyOp52
 70
     0
102
RTVSPropertyOp53
 70
     1
102
RTVSPropertyOp54
 70
     1
102
RTVSPropertyOp55
 70
     1
102
RTVSPropertyOp56
 70
     1
102
RTVSPropertyOp57
 70
     1
102
RTVSPropertyOp58
 70
     1
102
RTVSPropertyOp59
 70
     1
102
RTVSPropertyOp60
 70
     1
102
RTVSPropertyOp61
 70
     1
102
RTVSPropertyOp62
 70
     1
  0
XRECORD
  5
528
102
{ACAD_REACTORS
330
527
102
}
330
527
100
AcDbXrecord
280
     1
102
RTVSPost2010Prop28
280
     0
102
RTVSPost2010PropOp28
 70
     1
102
RTVSPost2010Prop29
280
     1
102
RTVSPost2010PropOp29
 70
     1
102
RTVSPost2010Prop30
280
     1
102
RTVSPost2010PropOp30
 70
     1
102
RTVSPost2010Prop31
280
     0
102
RTVSPost2010PropOp31
 70
     1
102
RTVSPost2010Prop32
280
     0
102
RTVSPost2010PropOp32
 70
     1
102
RTVSPost2010Prop33
280
     0
102
RTVSPost2010PropOp33
 70
     1
102
RTVSPost2010Prop34
280
     0
102
RTVSPost2010PropOp34
 70
     1
102
RTVSPost2010Prop35
280
     0
102
RTVSPost2010PropOp35
 70
     1
102
RTVSPost2010Prop36
280
     0
102
RTVSPost2010PropOp36
 70
     1
102
RTVSPost2010Prop37
 90
       50
102
RTVSPost2010PropOp37
 70
     1
102
RTVSPost2010Prop38
140
0.0
102
RTVSPost2010PropOp38
 70
     1
102
RTVSPost2010Prop39
140
1.0
102
RTVSPost2010PropOp39
 70
     1
102
RTVSPost2010Prop40
 90
        0
102
RTVSPost2010PropOp40
 70
     1
102
RTVSPost2010Prop41ColorIndex
 90
       18
102
RTVSPost2010Prop41ColorRGB
 90
        0
102
RTVSPost2010PropOp41
 70
     1
102
RTVSPost2010Prop42
 90
       50
102
RTVSPost2010PropOp42
 70
     1
102
RTVSPost2010Prop43
 90
        3
102
RTVSPost2010PropOp43
 70
     1
102
RTVSPost2010Prop44ColorIndex
 90
        5
102
RTVSPost2010Prop44ColorRGB
 90
      255
102
RTVSPost2010PropOp44
 70
     1
102
RTVSPost2010Prop45
280
     0
102
RTVSPost2010PropOp45
 70
     1
102
RTVSPost2010Prop46
 90
       50
102
RTVSPost2010PropOp46
 70
     1
102
RTVSPost2010Prop47
 90
       50
102
RTVSPost2010PropOp47
 70
     1
102
RTVSPost2010Prop48
 90
       50
102
RTVSPost2010PropOp48
 70
     1
102
RTVSPost2010Prop49
280
     0
102
RTVSPost2010PropOp49
 70
     1
102
RTVSPost2010Prop50
 90
       50
102
RTVSPost2010PropOp50
 70
     1
102
RTVSPost2010Prop51ColorIndex
 90
      256
102
RTVSPost2010Prop51ColorRGB
 90
-16777216
102
RTVSPost2010PropOp51
 70
     0
102
RTVSPost2010Prop52
140
1.0
102
RTVSPost2010PropOp52
 70
     0
102
RTVSPost2010Prop53
 90
        2
102
RTVSPost2010PropOp53
 70
     1
102
RTVSPost2010Prop54
  1
strokes_ogs.tif
102
RTVSPost2010PropOp54
 70
     1
102
RTVSPost2010Prop55
280
     0
102
RTVSPost2010PropOp55
 70
     1
102
RTVSPost2010Prop56
140
1.0
102
RTVSPost2010PropOp56
 70
     1
102
RTVSPost2010Prop57
140
1.0
102
RTVSPost2010PropOp57
 70
     1
102
RTVSPropertyOp0
 70
     1
102
RTVSPropertyOp1
 70
     1
102
RTVSPropertyOp2
 70
     1
102
RTVSPropertyOp3
 70
     1
102
RTVSPropertyOp4
 70
     1
102
RTVSPropertyOp5
 70
     1
102
RTVSPropertyOp6
 70
     1
102
RTVSPropertyOp7
 70
     1
102
RTVSPropertyOp8
 70
     1
102
RTVSPropertyOp9
 70
     1
102
RTVSPropertyOp10
 70
     1
102
RTVSPropertyOp11
 70
     1
102
RTVSPropertyOp12
 70
     1
102
RTVSPropertyOp13
 70
     1
102
RTVSPropertyOp14
 70
     1
102
RTVSPropertyOp15
 70
     1
102
RTVSPropertyOp16
 70
     1
102
RTVSPropertyOp17
 70
     1
102
RTVSPropertyOp18
 70
     1
102
RTVSPropertyOp19
 70
     1
102
RTVSPropertyOp20
 70
     1
102
RTVSPropertyOp21
 70
     1
102
RTVSPropertyOp22
 70
     1
102
RTVSPropertyOp23
 70
     1
102
RTVSPropertyOp24
 70
     1
102
RTVSPropertyOp25
 70
     1
102
RTVSPropertyOp26
 70
     1
102
RTVSPropertyOp27
 70
     1
102
RTVSPropertyOp28
 70
     1
102
RTVSPropertyOp29
 70
     1
102
RTVSPropertyOp30
 70
     1
102
RTVSPropertyOp31
 70
     1
102
RTVSPropertyOp32
 70
     1
102
RTVSPropertyOp33
 70
     1
102
RTVSPropertyOp34
 70
     1
102
RTVSPropertyOp35
 70
     1
102
RTVSPropertyOp36
 70
     1
102
RTVSPropertyOp37
 70
     1
102
RTVSPropertyOp38
 70
     1
102
RTVSPropertyOp39
 70
     1
102
RTVSPropertyOp40
 70
     1
102
RTVSPropertyOp41
 70
     1
102
RTVSPropertyOp42
 70
     1
102
RTVSPropertyOp43
 70
     1
102
RTVSPropertyOp44
 70
     1
102
RTVSPropertyOp45
 70
     1
102
RTVSPropertyOp46
 70
     1
102
RTVSPropertyOp47
 70
     1
102
RTVSPropertyOp48
 70
     1
102
RTVSPropertyOp49
 70
     1
102
RTVSPropertyOp50
 70
     1
102
RTVSPropertyOp51
 70
     0
102
RTVSPropertyOp52
 70
     0
102
RTVSPropertyOp53
 70
     1
102
RTVSPropertyOp54
 70
     1
102
RTVSPropertyOp55
 70
     1
102
RTVSPropertyOp56
 70
     1
102
RTVSPropertyOp57
 70
     1
102
RTVSPropertyOp58
 70
     1
102
RTVSPropertyOp59
 70
     1
102
RTVSPropertyOp60
 70
     1
102
RTVSPropertyOp61
 70
     1
102
RTVSPropertyOp62
 70
     1
  0
XRECORD
  5
52A
102
{ACAD_REACTORS
330
529
102
}
330
529
100
AcDbXrecord
280
     1
102
RTVSPost2010Prop28
280
     0
102
RTVSPost2010PropOp28
 70
     1
102
RTVSPost2010Prop29
280
     1
102
RTVSPost2010PropOp29
 70
     1
102
RTVSPost2010Prop30
280
     1
102
RTVSPost2010PropOp30
 70
     1
102
RTVSPost2010Prop31
280
     0
102
RTVSPost2010PropOp31
 70
     1
102
RTVSPost2010Prop32
280
     0
102
RTVSPost2010PropOp32
 70
     1
102
RTVSPost2010Prop33
280
     0
102
RTVSPost2010PropOp33
 70
     1
102
RTVSPost2010Prop34
280
     0
102
RTVSPost2010PropOp34
 70
     1
102
RTVSPost2010Prop35
280
     0
102
RTVSPost2010PropOp35
 70
     1
102
RTVSPost2010Prop36
280
     0
102
RTVSPost2010PropOp36
 70
     1
102
RTVSPost2010Prop37
 90
       50
102
RTVSPost2010PropOp37
 70
     1
102
RTVSPost2010Prop38
140
0.0
102
RTVSPost2010PropOp38
 70
     1
102
RTVSPost2010Prop39
140
1.0
102
RTVSPost2010PropOp39
 70
     1
102
RTVSPost2010Prop40
 90
        0
102
RTVSPost2010PropOp40
 70
     1
102
RTVSPost2010Prop41ColorIndex
 90
       18
102
RTVSPost2010Prop41ColorRGB
 90
        0
102
RTVSPost2010PropOp41
 70
     1
102
RTVSPost2010Prop42
 90
       50
102
RTVSPost2010PropOp42
 70
     1
102
RTVSPost2010Prop43
 90
        3
102
RTVSPost2010PropOp43
 70
     1
102
RTVSPost2010Prop44ColorIndex
 90
        5
102
RTVSPost2010Prop44ColorRGB
 90
      255
102
RTVSPost2010PropOp44
 70
     1
102
RTVSPost2010Prop45
280
     0
102
RTVSPost2010PropOp45
 70
     1
102
RTVSPost2010Prop46
 90
       50
102
RTVSPost2010PropOp46
 70
     1
102
RTVSPost2010Prop47
 90
       50
102
RTVSPost2010PropOp47
 70
     1
102
RTVSPost2010Prop48
 90
       50
102
RTVSPost2010PropOp48
 70
     1
102
RTVSPost2010Prop49
280
     0
102
RTVSPost2010PropOp49
 70
     1
102
RTVSPost2010Prop50
 90
       50
102
RTVSPost2010PropOp50
 70
     1
102
RTVSPost2010Prop51ColorIndex
 90
      256
102
RTVSPost2010Prop51ColorRGB
 90
-16777216
102
RTVSPost2010PropOp51
 70
     0
102
RTVSPost2010Prop52
140
1.0
102
RTVSPost2010PropOp52
 70
     0
102
RTVSPost2010Prop53
 90
        2
102
RTVSPost2010PropOp53
 70
     1
102
RTVSPost2010Prop54
  1
strokes_ogs.tif
102
RTVSPost2010PropOp54
 70
     1
102
RTVSPost2010Prop55
280
     0
102
RTVSPost2010PropOp55
 70
     1
102
RTVSPost2010Prop56
140
1.0
102
RTVSPost2010PropOp56
 70
     1
102
RTVSPost2010Prop57
140
1.0
102
RTVSPost2010PropOp57
 70
     1
102
RTVSPropertyOp0
 70
     1
102
RTVSPropertyOp1
 70
     1
102
RTVSPropertyOp2
 70
     1
102
RTVSPropertyOp3
 70
     1
102
RTVSPropertyOp4
 70
     1
102
RTVSPropertyOp5
 70
     1
102
RTVSPropertyOp6
 70
     1
102
RTVSPropertyOp7
 70
     1
102
RTVSPropertyOp8
 70
     1
102
RTVSPropertyOp9
 70
     1
102
RTVSPropertyOp10
 70
     1
102
RTVSPropertyOp11
 70
     1
102
RTVSPropertyOp12
 70
     1
102
RTVSPropertyOp13
 70
     1
102
RTVSPropertyOp14
 70
     1
102
RTVSPropertyOp15
 70
     1
102
RTVSPropertyOp16
 70
     1
102
RTVSPropertyOp17
 70
     1
102
RTVSPropertyOp18
 70
     1
102
RTVSPropertyOp19
 70
     1
102
RTVSPropertyOp20
 70
     1
102
RTVSPropertyOp21
 70
     1
102
RTVSPropertyOp22
 70
     1
102
RTVSPropertyOp23
 70
     1
102
RTVSPropertyOp24
 70
     1
102
RTVSPropertyOp25
 70
     1
102
RTVSPropertyOp26
 70
     1
102
RTVSPropertyOp27
 70
     1
102
RTVSPropertyOp28
 70
     1
102
RTVSPropertyOp29
 70
     1
102
RTVSPropertyOp30
 70
     1
102
RTVSPropertyOp31
 70
     1
102
RTVSPropertyOp32
 70
     1
102
RTVSPropertyOp33
 70
     1
102
RTVSPropertyOp34
 70
     1
102
RTVSPropertyOp35
 70
     1
102
RTVSPropertyOp36
 70
     1
102
RTVSPropertyOp37
 70
     1
102
RTVSPropertyOp38
 70
     1
102
RTVSPropertyOp39
 70
     1
102
RTVSPropertyOp40
 70
     1
102
RTVSPropertyOp41
 70
     1
102
RTVSPropertyOp42
 70
     1
102
RTVSPropertyOp43
 70
     1
102
RTVSPropertyOp44
 70
     1
102
RTVSPropertyOp45
 70
     1
102
RTVSPropertyOp46
 70
     1
102
RTVSPropertyOp47
 70
     1
102
RTVSPropertyOp48
 70
     1
102
RTVSPropertyOp49
 70
     1
102
RTVSPropertyOp50
 70
     1
102
RTVSPropertyOp51
 70
     0
102
RTVSPropertyOp52
 70
     0
102
RTVSPropertyOp53
 70
     1
102
RTVSPropertyOp54
 70
     1
102
RTVSPropertyOp55
 70
     1
102
RTVSPropertyOp56
 70
     1
102
RTVSPropertyOp57
 70
     1
102
RTVSPropertyOp58
 70
     1
102
RTVSPropertyOp59
 70
     1
102
RTVSPropertyOp60
 70
     1
102
RTVSPropertyOp61
 70
     1
102
RTVSPropertyOp62
 70
     1
  0
XRECORD
  5
532
102
{ACAD_REACTORS
330
531
102
}
330
531
100
AcDbXrecord
280
     1
102
RTVSPost2010Prop28
280
     0
102
RTVSPost2010PropOp28
 70
     1
102
RTVSPost2010Prop29
280
     1
102
RTVSPost2010PropOp29
 70
     1
102
RTVSPost2010Prop30
280
     1
102
RTVSPost2010PropOp30
 70
     1
102
RTVSPost2010Prop31
280
     0
102
RTVSPost2010PropOp31
 70
     1
102
RTVSPost2010Prop32
280
     0
102
RTVSPost2010PropOp32
 70
     1
102
RTVSPost2010Prop33
280
     0
102
RTVSPost2010PropOp33
 70
     1
102
RTVSPost2010Prop34
280
     0
102
RTVSPost2010PropOp34
 70
     1
102
RTVSPost2010Prop35
280
     0
102
RTVSPost2010PropOp35
 70
     1
102
RTVSPost2010Prop36
280
     0
102
RTVSPost2010PropOp36
 70
     1
102
RTVSPost2010Prop37
 90
       50
102
RTVSPost2010PropOp37
 70
     1
102
RTVSPost2010Prop38
140
0.0
102
RTVSPost2010PropOp38
 70
     1
102
RTVSPost2010Prop39
140
1.0
102
RTVSPost2010PropOp39
 70
     1
102
RTVSPost2010Prop40
 90
        0
102
RTVSPost2010PropOp40
 70
     1
102
RTVSPost2010Prop41ColorIndex
 90
       18
102
RTVSPost2010Prop41ColorRGB
 90
        0
102
RTVSPost2010PropOp41
 70
     1
102
RTVSPost2010Prop42
 90
       50
102
RTVSPost2010PropOp42
 70
     1
102
RTVSPost2010Prop43
 90
        3
102
RTVSPost2010PropOp43
 70
     1
102
RTVSPost2010Prop44ColorIndex
 90
        5
102
RTVSPost2010Prop44ColorRGB
 90
      255
102
RTVSPost2010PropOp44
 70
     1
102
RTVSPost2010Prop45
280
     0
102
RTVSPost2010PropOp45
 70
     1
102
RTVSPost2010Prop46
 90
       50
102
RTVSPost2010PropOp46
 70
     1
102
RTVSPost2010Prop47
 90
       50
102
RTVSPost2010PropOp47
 70
     1
102
RTVSPost2010Prop48
 90
       50
102
RTVSPost2010PropOp48
 70
     1
102
RTVSPost2010Prop49
280
     0
102
RTVSPost2010PropOp49
 70
     1
102
RTVSPost2010Prop50
 90
       50
102
RTVSPost2010PropOp50
 70
     1
102
RTVSPost2010Prop51ColorIndex
 90
      256
102
RTVSPost2010Prop51ColorRGB
 90
-16777216
102
RTVSPost2010PropOp51
 70
     0
102
RTVSPost2010Prop52
140
1.0
102
RTVSPost2010PropOp52
 70
     0
102
RTVSPost2010Prop53
 90
        2
102
RTVSPost2010PropOp53
 70
     1
102
RTVSPost2010Prop54
  1
strokes_ogs.tif
102
RTVSPost2010PropOp54
 70
     1
102
RTVSPost2010Prop55
280
     0
102
RTVSPost2010PropOp55
 70
     1
102
RTVSPost2010Prop56
140
1.0
102
RTVSPost2010PropOp56
 70
     1
102
RTVSPost2010Prop57
140
1.0
102
RTVSPost2010PropOp57
 70
     1
102
RTVSPropertyOp0
 70
     1
102
RTVSPropertyOp1
 70
     1
102
RTVSPropertyOp2
 70
     1
102
RTVSPropertyOp3
 70
     1
102
RTVSPropertyOp4
 70
     1
102
RTVSPropertyOp5
 70
     1
102
RTVSPropertyOp6
 70
     1
102
RTVSPropertyOp7
 70
     1
102
RTVSPropertyOp8
 70
     1
102
RTVSPropertyOp9
 70
     1
102
RTVSPropertyOp10
 70
     1
102
RTVSPropertyOp11
 70
     1
102
RTVSPropertyOp12
 70
     1
102
RTVSPropertyOp13
 70
     1
102
RTVSPropertyOp14
 70
     1
102
RTVSPropertyOp15
 70
     1
102
RTVSPropertyOp16
 70
     1
102
RTVSPropertyOp17
 70
     1
102
RTVSPropertyOp18
 70
     1
102
RTVSPropertyOp19
 70
     1
102
RTVSPropertyOp20
 70
     1
102
RTVSPropertyOp21
 70
     1
102
RTVSPropertyOp22
 70
     1
102
RTVSPropertyOp23
 70
     1
102
RTVSPropertyOp24
 70
     1
102
RTVSPropertyOp25
 70
     1
102
RTVSPropertyOp26
 70
     1
102
RTVSPropertyOp27
 70
     1
102
RTVSPropertyOp28
 70
     1
102
RTVSPropertyOp29
 70
     1
102
RTVSPropertyOp30
 70
     1
102
RTVSPropertyOp31
 70
     1
102
RTVSPropertyOp32
 70
     1
102
RTVSPropertyOp33
 70
     1
102
RTVSPropertyOp34
 70
     1
102
RTVSPropertyOp35
 70
     1
102
RTVSPropertyOp36
 70
     1
102
RTVSPropertyOp37
 70
     1
102
RTVSPropertyOp38
 70
     1
102
RTVSPropertyOp39
 70
     1
102
RTVSPropertyOp40
 70
     1
102
RTVSPropertyOp41
 70
     1
102
RTVSPropertyOp42
 70
     1
102
RTVSPropertyOp43
 70
     1
102
RTVSPropertyOp44
 70
     1
102
RTVSPropertyOp45
 70
     1
102
RTVSPropertyOp46
 70
     1
102
RTVSPropertyOp47
 70
     1
102
RTVSPropertyOp48
 70
     1
102
RTVSPropertyOp49
 70
     1
102
RTVSPropertyOp50
 70
     1
102
RTVSPropertyOp51
 70
     0
102
RTVSPropertyOp52
 70
     0
102
RTVSPropertyOp53
 70
     1
102
RTVSPropertyOp54
 70
     1
102
RTVSPropertyOp55
 70
     1
102
RTVSPropertyOp56
 70
     1
102
RTVSPropertyOp57
 70
     1
102
RTVSPropertyOp58
 70
     1
102
RTVSPropertyOp59
 70
     1
102
RTVSPropertyOp60
 70
     1
102
RTVSPropertyOp61
 70
     1
102
RTVSPropertyOp62
 70
     1
  0
XRECORD
  5
54E
102
{ACAD_REACTORS
330
54D
102
}
330
54D
100
AcDbXrecord
280
     1
102
RTVSPost2010Prop28
280
     0
102
RTVSPost2010PropOp28
 70
     1
102
RTVSPost2010Prop29
280
     1
102
RTVSPost2010PropOp29
 70
     1
102
RTVSPost2010Prop30
280
     1
102
RTVSPost2010PropOp30
 70
     1
102
RTVSPost2010Prop31
280
     0
102
RTVSPost2010PropOp31
 70
     1
102
RTVSPost2010Prop32
280
     0
102
RTVSPost2010PropOp32
 70
     1
102
RTVSPost2010Prop33
280
     0
102
RTVSPost2010PropOp33
 70
     1
102
RTVSPost2010Prop34
280
     0
102
RTVSPost2010PropOp34
 70
     1
102
RTVSPost2010Prop35
280
     0
102
RTVSPost2010PropOp35
 70
     1
102
RTVSPost2010Prop36
280
     0
102
RTVSPost2010PropOp36
 70
     1
102
RTVSPost2010Prop37
 90
       50
102
RTVSPost2010PropOp37
 70
     0
102
RTVSPost2010Prop38
140
0.0
102
RTVSPost2010PropOp38
 70
     0
102
RTVSPost2010Prop39
140
1.0
102
RTVSPost2010PropOp39
 70
     0
102
RTVSPost2010Prop40
 90
        0
102
RTVSPost2010PropOp40
 70
     0
102
RTVSPost2010Prop41ColorIndex
 90
       18
102
RTVSPost2010Prop41ColorRGB
 90
        0
102
RTVSPost2010PropOp41
 70
     0
102
RTVSPost2010Prop42
 90
       50
102
RTVSPost2010PropOp42
 70
     0
102
RTVSPost2010Prop43
 90
        3
102
RTVSPost2010PropOp43
 70
     0
102
RTVSPost2010Prop44ColorIndex
 90
        5
102
RTVSPost2010Prop44ColorRGB
 90
      255
102
RTVSPost2010PropOp44
 70
     0
102
RTVSPost2010Prop45
280
     0
102
RTVSPost2010PropOp45
 70
     1
102
RTVSPost2010Prop46
 90
       50
102
RTVSPost2010PropOp46
 70
     0
102
RTVSPost2010Prop47
 90
       50
102
RTVSPost2010PropOp47
 70
     0
102
RTVSPost2010Prop48
 90
       50
102
RTVSPost2010PropOp48
 70
     0
102
RTVSPost2010Prop49
280
     0
102
RTVSPost2010PropOp49
 70
     1
102
RTVSPost2010Prop50
 90
       50
102
RTVSPost2010PropOp50
 70
     0
102
RTVSPost2010Prop51ColorIndex
 90
      256
102
RTVSPost2010Prop51ColorRGB
 90
-16777216
102
RTVSPost2010PropOp51
 70
     0
102
RTVSPost2010Prop52
140
1.0
102
RTVSPost2010PropOp52
 70
     0
102
RTVSPost2010Prop53
 90
        2
102
RTVSPost2010PropOp53
 70
     0
102
RTVSPost2010Prop54
  1
strokes_ogs.tif
102
RTVSPost2010PropOp54
 70
     0
102
RTVSPost2010Prop55
280
     0
102
RTVSPost2010PropOp55
 70
     1
102
RTVSPost2010Prop56
140
1.0
102
RTVSPost2010PropOp56
 70
     0
102
RTVSPost2010Prop57
140
1.0
102
RTVSPost2010PropOp57
 70
     0
102
RTVSPropertyOp0
 70
     0
102
RTVSPropertyOp1
 70
     0
102
RTVSPropertyOp2
 70
     0
102
RTVSPropertyOp3
 70
     0
102
RTVSPropertyOp4
 70
     0
102
RTVSPropertyOp5
 70
     0
102
RTVSPropertyOp6
 70
     0
102
RTVSPropertyOp7
 70
     0
102
RTVSPropertyOp8
 70
     0
102
RTVSPropertyOp9
 70
     0
102
RTVSPropertyOp10
 70
     0
102
RTVSPropertyOp11
 70
     0
102
RTVSPropertyOp12
 70
     0
102
RTVSPropertyOp13
 70
     0
102
RTVSPropertyOp14
 70
     2
102
RTVSPropertyOp15
 70
     0
102
RTVSPropertyOp16
 70
     0
102
RTVSPropertyOp17
 70
     0
102
RTVSPropertyOp18
 70
     0
102
RTVSPropertyOp19
 70
     0
102
RTVSPropertyOp20
 70
     0
102
RTVSPropertyOp21
 70
     0
102
RTVSPropertyOp22
 70
     0
102
RTVSPropertyOp23
 70
     0
102
RTVSPropertyOp24
 70
     0
102
RTVSPropertyOp25
 70
     0
102
RTVSPropertyOp26
 70
     0
102
RTVSPropertyOp27
 70
     0
102
RTVSPropertyOp28
 70
     1
102
RTVSPropertyOp29
 70
     1
102
RTVSPropertyOp30
 70
     1
102
RTVSPropertyOp31
 70
     1
102
RTVSPropertyOp32
 70
     1
102
RTVSPropertyOp33
 70
     1
102
RTVSPropertyOp34
 70
     1
102
RTVSPropertyOp35
 70
     1
102
RTVSPropertyOp36
 70
     1
102
RTVSPropertyOp37
 70
     0
102
RTVSPropertyOp38
 70
     0
102
RTVSPropertyOp39
 70
     0
102
RTVSPropertyOp40
 70
     0
102
RTVSPropertyOp41
 70
     0
102
RTVSPropertyOp42
 70
     0
102
RTVSPropertyOp43
 70
     0
102
RTVSPropertyOp44
 70
     0
102
RTVSPropertyOp45
 70
     1
102
RTVSPropertyOp46
 70
     0
102
RTVSPropertyOp47
 70
     0
102
RTVSPropertyOp48
 70
     0
102
RTVSPropertyOp49
 70
     1
102
RTVSPropertyOp50
 70
     0
102
RTVSPropertyOp51
 70
     0
102
RTVSPropertyOp52
 70
     0
102
RTVSPropertyOp53
 70
     0
102
RTVSPropertyOp54
 70
     0
102
RTVSPropertyOp55
 70
     1
102
RTVSPropertyOp56
 70
     0
102
RTVSPropertyOp57
 70
     0
102
RTVSPropertyOp58
 70
     0
102
RTVSPropertyOp59
 70
     0
102
RTVSPropertyOp60
 70
     0
102
RTVSPropertyOp61
 70
     0
102
RTVSPropertyOp62
 70
     0
  0
XRECORD
  5
53E
102
{ACAD_REACTORS
330
53D
102
}
330
53D
100
AcDbXrecord
280
     1
102
RTVSPost2010Prop28
280
     0
102
RTVSPost2010PropOp28
 70
     1
102
RTVSPost2010Prop29
280
     1
102
RTVSPost2010PropOp29
 70
     1
102
RTVSPost2010Prop30
280
     1
102
RTVSPost2010PropOp30
 70
     1
102
RTVSPost2010Prop31
280
     0
102
RTVSPost2010PropOp31
 70
     1
102
RTVSPost2010Prop32
280
     0
102
RTVSPost2010PropOp32
 70
     1
102
RTVSPost2010Prop33
280
     0
102
RTVSPost2010PropOp33
 70
     1
102
RTVSPost2010Prop34
280
     0
102
RTVSPost2010PropOp34
 70
     1
102
RTVSPost2010Prop35
280
     0
102
RTVSPost2010PropOp35
 70
     1
102
RTVSPost2010Prop36
280
     0
102
RTVSPost2010PropOp36
 70
     1
102
RTVSPost2010Prop37
 90
       50
102
RTVSPost2010PropOp37
 70
     1
102
RTVSPost2010Prop38
140
0.0
102
RTVSPost2010PropOp38
 70
     1
102
RTVSPost2010Prop39
140
1.0
102
RTVSPost2010PropOp39
 70
     1
102
RTVSPost2010Prop40
 90
        0
102
RTVSPost2010PropOp40
 70
     1
102
RTVSPost2010Prop41ColorIndex
 90
       18
102
RTVSPost2010Prop41ColorRGB
 90
        0
102
RTVSPost2010PropOp41
 70
     1
102
RTVSPost2010Prop42
 90
       50
102
RTVSPost2010PropOp42
 70
     1
102
RTVSPost2010Prop43
 90
        3
102
RTVSPost2010PropOp43
 70
     1
102
RTVSPost2010Prop44ColorIndex
 90
        5
102
RTVSPost2010Prop44ColorRGB
 90
      255
102
RTVSPost2010PropOp44
 70
     1
102
RTVSPost2010Prop45
280
     0
102
RTVSPost2010PropOp45
 70
     1
102
RTVSPost2010Prop46
 90
       50
102
RTVSPost2010PropOp46
 70
     1
102
RTVSPost2010Prop47
 90
       50
102
RTVSPost2010PropOp47
 70
     1
102
RTVSPost2010Prop48
 90
       50
102
RTVSPost2010PropOp48
 70
     1
102
RTVSPost2010Prop49
280
     0
102
RTVSPost2010PropOp49
 70
     1
102
RTVSPost2010Prop50
 90
       50
102
RTVSPost2010PropOp50
 70
     1
102
RTVSPost2010Prop51ColorIndex
 90
      256
102
RTVSPost2010Prop51ColorRGB
 90
-16777216
102
RTVSPost2010PropOp51
 70
     0
102
RTVSPost2010Prop52
140
1.0
102
RTVSPost2010PropOp52
 70
     0
102
RTVSPost2010Prop53
 90
        2
102
RTVSPost2010PropOp53
 70
     1
102
RTVSPost2010Prop54
  1
strokes_ogs.tif
102
RTVSPost2010PropOp54
 70
     1
102
RTVSPost2010Prop55
280
     0
102
RTVSPost2010PropOp55
 70
     1
102
RTVSPost2010Prop56
140
1.0
102
RTVSPost2010PropOp56
 70
     1
102
RTVSPost2010Prop57
140
1.0
102
RTVSPost2010PropOp57
 70
     1
102
RTVSPropertyOp0
 70
     1
102
RTVSPropertyOp1
 70
     1
102
RTVSPropertyOp2
 70
     1
102
RTVSPropertyOp3
 70
     1
102
RTVSPropertyOp4
 70
     1
102
RTVSPropertyOp5
 70
     1
102
RTVSPropertyOp6
 70
     1
102
RTVSPropertyOp7
 70
     1
102
RTVSPropertyOp8
 70
     1
102
RTVSPropertyOp9
 70
     1
102
RTVSPropertyOp10
 70
     1
102
RTVSPropertyOp11
 70
     1
102
RTVSPropertyOp12
 70
     1
102
RTVSPropertyOp13
 70
     1
102
RTVSPropertyOp14
 70
     1
102
RTVSPropertyOp15
 70
     1
102
RTVSPropertyOp16
 70
     1
102
RTVSPropertyOp17
 70
     1
102
RTVSPropertyOp18
 70
     1
102
RTVSPropertyOp19
 70
     1
102
RTVSPropertyOp20
 70
     1
102
RTVSPropertyOp21
 70
     1
102
RTVSPropertyOp22
 70
     1
102
RTVSPropertyOp23
 70
     1
102
RTVSPropertyOp24
 70
     1
102
RTVSPropertyOp25
 70
     1
102
RTVSPropertyOp26
 70
     1
102
RTVSPropertyOp27
 70
     1
102
RTVSPropertyOp28
 70
     1
102
RTVSPropertyOp29
 70
     1
102
RTVSPropertyOp30
 70
     1
102
RTVSPropertyOp31
 70
     1
102
RTVSPropertyOp32
 70
     1
102
RTVSPropertyOp33
 70
     1
102
RTVSPropertyOp34
 70
     1
102
RTVSPropertyOp35
 70
     1
102
RTVSPropertyOp36
 70
     1
102
RTVSPropertyOp37
 70
     1
102
RTVSPropertyOp38
 70
     1
102
RTVSPropertyOp39
 70
     1
102
RTVSPropertyOp40
 70
     1
102
RTVSPropertyOp41
 70
     1
102
RTVSPropertyOp42
 70
     1
102
RTVSPropertyOp43
 70
     1
102
RTVSPropertyOp44
 70
     1
102
RTVSPropertyOp45
 70
     1
102
RTVSPropertyOp46
 70
     1
102
RTVSPropertyOp47
 70
     1
102
RTVSPropertyOp48
 70
     1
102
RTVSPropertyOp49
 70
     1
102
RTVSPropertyOp50
 70
     1
102
RTVSPropertyOp51
 70
     0
102
RTVSPropertyOp52
 70
     0
102
RTVSPropertyOp53
 70
     1
102
RTVSPropertyOp54
 70
     1
102
RTVSPropertyOp55
 70
     1
102
RTVSPropertyOp56
 70
     1
102
RTVSPropertyOp57
 70
     1
102
RTVSPropertyOp58
 70
     1
102
RTVSPropertyOp59
 70
     1
102
RTVSPropertyOp60
 70
     1
102
RTVSPropertyOp61
 70
     1
102
RTVSPropertyOp62
 70
     1
  0
XRECORD
  5
550
102
{ACAD_REACTORS
330
54F
102
}
330
54F
100
AcDbXrecord
280
     1
102
RTVSPost2010Prop28
280
     0
102
RTVSPost2010PropOp28
 70
     1
102
RTVSPost2010Prop29
280
     1
102
RTVSPost2010PropOp29
 70
     1
102
RTVSPost2010Prop30
280
     1
102
RTVSPost2010PropOp30
 70
     1
102
RTVSPost2010Prop31
280
     0
102
RTVSPost2010PropOp31
 70
     1
102
RTVSPost2010Prop32
280
     0
102
RTVSPost2010PropOp32
 70
     1
102
RTVSPost2010Prop33
280
     0
102
RTVSPost2010PropOp33
 70
     1
102
RTVSPost2010Prop34
280
     0
102
RTVSPost2010PropOp34
 70
     1
102
RTVSPost2010Prop35
280
     0
102
RTVSPost2010PropOp35
 70
     1
102
RTVSPost2010Prop36
280
     0
102
RTVSPost2010PropOp36
 70
     1
102
RTVSPost2010Prop37
 90
       50
102
RTVSPost2010PropOp37
 70
     0
102
RTVSPost2010Prop38
140
0.0
102
RTVSPost2010PropOp38
 70
     0
102
RTVSPost2010Prop39
140
1.0
102
RTVSPost2010PropOp39
 70
     0
102
RTVSPost2010Prop40
 90
        0
102
RTVSPost2010PropOp40
 70
     0
102
RTVSPost2010Prop41ColorIndex
 90
       18
102
RTVSPost2010Prop41ColorRGB
 90
        0
102
RTVSPost2010PropOp41
 70
     0
102
RTVSPost2010Prop42
 90
       50
102
RTVSPost2010PropOp42
 70
     0
102
RTVSPost2010Prop43
 90
        3
102
RTVSPost2010PropOp43
 70
     0
102
RTVSPost2010Prop44ColorIndex
 90
        5
102
RTVSPost2010Prop44ColorRGB
 90
      255
102
RTVSPost2010PropOp44
 70
     0
102
RTVSPost2010Prop45
280
     0
102
RTVSPost2010PropOp45
 70
     1
102
RTVSPost2010Prop46
 90
       50
102
RTVSPost2010PropOp46
 70
     0
102
RTVSPost2010Prop47
 90
       50
102
RTVSPost2010PropOp47
 70
     0
102
RTVSPost2010Prop48
 90
       50
102
RTVSPost2010PropOp48
 70
     0
102
RTVSPost2010Prop49
280
     0
102
RTVSPost2010PropOp49
 70
     1
102
RTVSPost2010Prop50
 90
       50
102
RTVSPost2010PropOp50
 70
     0
102
RTVSPost2010Prop51ColorIndex
 90
      256
102
RTVSPost2010Prop51ColorRGB
 90
-16777216
102
RTVSPost2010PropOp51
 70
     0
102
RTVSPost2010Prop52
140
1.0
102
RTVSPost2010PropOp52
 70
     0
102
RTVSPost2010Prop53
 90
        2
102
RTVSPost2010PropOp53
 70
     0
102
RTVSPost2010Prop54
  1
strokes_ogs.tif
102
RTVSPost2010PropOp54
 70
     0
102
RTVSPost2010Prop55
280
     0
102
RTVSPost2010PropOp55
 70
     1
102
RTVSPost2010Prop56
140
1.0
102
RTVSPost2010PropOp56
 70
     0
102
RTVSPost2010Prop57
140
1.0
102
RTVSPost2010PropOp57
 70
     0
102
RTVSPropertyOp0
 70
     0
102
RTVSPropertyOp1
 70
     0
102
RTVSPropertyOp2
 70
     0
102
RTVSPropertyOp3
 70
     0
102
RTVSPropertyOp4
 70
     0
102
RTVSPropertyOp5
 70
     0
102
RTVSPropertyOp6
 70
     0
102
RTVSPropertyOp7
 70
     0
102
RTVSPropertyOp8
 70
     0
102
RTVSPropertyOp9
 70
     0
102
RTVSPropertyOp10
 70
     0
102
RTVSPropertyOp11
 70
     0
102
RTVSPropertyOp12
 70
     0
102
RTVSPropertyOp13
 70
     0
102
RTVSPropertyOp14
 70
     2
102
RTVSPropertyOp15
 70
     0
102
RTVSPropertyOp16
 70
     0
102
RTVSPropertyOp17
 70
     0
102
RTVSPropertyOp18
 70
     0
102
RTVSPropertyOp19
 70
     0
102
RTVSPropertyOp20
 70
     0
102
RTVSPropertyOp21
 70
     0
102
RTVSPropertyOp22
 70
     0
102
RTVSPropertyOp23
 70
     0
102
RTVSPropertyOp24
 70
     0
102
RTVSPropertyOp25
 70
     0
102
RTVSPropertyOp26
 70
     0
102
RTVSPropertyOp27
 70
     0
102
RTVSPropertyOp28
 70
     1
102
RTVSPropertyOp29
 70
     1
102
RTVSPropertyOp30
 70
     1
102
RTVSPropertyOp31
 70
     1
102
RTVSPropertyOp32
 70
     1
102
RTVSPropertyOp33
 70
     1
102
RTVSPropertyOp34
 70
     1
102
RTVSPropertyOp35
 70
     1
102
RTVSPropertyOp36
 70
     1
102
RTVSPropertyOp37
 70
     0
102
RTVSPropertyOp38
 70
     0
102
RTVSPropertyOp39
 70
     0
102
RTVSPropertyOp40
 70
     0
102
RTVSPropertyOp41
 70
     0
102
RTVSPropertyOp42
 70
     0
102
RTVSPropertyOp43
 70
     0
102
RTVSPropertyOp44
 70
     0
102
RTVSPropertyOp45
 70
     1
102
RTVSPropertyOp46
 70
     0
102
RTVSPropertyOp47
 70
     0
102
RTVSPropertyOp48
 70
     0
102
RTVSPropertyOp49
 70
     1
102
RTVSPropertyOp50
 70
     0
102
RTVSPropertyOp51
 70
     0
102
RTVSPropertyOp52
 70
     0
102
RTVSPropertyOp53
 70
     0
102
RTVSPropertyOp54
 70
     0
102
RTVSPropertyOp55
 70
     1
102
RTVSPropertyOp56
 70
     0
102
RTVSPropertyOp57
 70
     0
102
RTVSPropertyOp58
 70
     0
102
RTVSPropertyOp59
 70
     0
102
RTVSPropertyOp60
 70
     0
102
RTVSPropertyOp61
 70
     0
102
RTVSPropertyOp62
 70
     0
  0
XRECORD
  5
536
102
{ACAD_REACTORS
330
535
102
}
330
535
100
AcDbXrecord
280
     1
102
RTVSPost2010Prop28
280
     0
102
RTVSPost2010PropOp28
 70
     1
102
RTVSPost2010Prop29
280
     1
102
RTVSPost2010PropOp29
 70
     1
102
RTVSPost2010Prop30
280
     1
102
RTVSPost2010PropOp30
 70
     1
102
RTVSPost2010Prop31
280
     0
102
RTVSPost2010PropOp31
 70
     1
102
RTVSPost2010Prop32
280
     0
102
RTVSPost2010PropOp32
 70
     1
102
RTVSPost2010Prop33
280
     0
102
RTVSPost2010PropOp33
 70
     1
102
RTVSPost2010Prop34
280
     0
102
RTVSPost2010PropOp34
 70
     1
102
RTVSPost2010Prop35
280
     0
102
RTVSPost2010PropOp35
 70
     1
102
RTVSPost2010Prop36
280
     0
102
RTVSPost2010PropOp36
 70
     1
102
RTVSPost2010Prop37
 90
       50
102
RTVSPost2010PropOp37
 70
     1
102
RTVSPost2010Prop38
140
0.0
102
RTVSPost2010PropOp38
 70
     1
102
RTVSPost2010Prop39
140
1.0
102
RTVSPost2010PropOp39
 70
     1
102
RTVSPost2010Prop40
 90
        0
102
RTVSPost2010PropOp40
 70
     1
102
RTVSPost2010Prop41ColorIndex
 90
       18
102
RTVSPost2010Prop41ColorRGB
 90
        0
102
RTVSPost2010PropOp41
 70
     1
102
RTVSPost2010Prop42
 90
       50
102
RTVSPost2010PropOp42
 70
     1
102
RTVSPost2010Prop43
 90
        3
102
RTVSPost2010PropOp43
 70
     1
102
RTVSPost2010Prop44ColorIndex
 90
        5
102
RTVSPost2010Prop44ColorRGB
 90
      255
102
RTVSPost2010PropOp44
 70
     1
102
RTVSPost2010Prop45
280
     0
102
RTVSPost2010PropOp45
 70
     1
102
RTVSPost2010Prop46
 90
       50
102
RTVSPost2010PropOp46
 70
     1
102
RTVSPost2010Prop47
 90
       50
102
RTVSPost2010PropOp47
 70
     1
102
RTVSPost2010Prop48
 90
       50
102
RTVSPost2010PropOp48
 70
     1
102
RTVSPost2010Prop49
280
     0
102
RTVSPost2010PropOp49
 70
     1
102
RTVSPost2010Prop50
 90
       50
102
RTVSPost2010PropOp50
 70
     1
102
RTVSPost2010Prop51ColorIndex
 90
      256
102
RTVSPost2010Prop51ColorRGB
 90
-16777216
102
RTVSPost2010PropOp51
 70
     0
102
RTVSPost2010Prop52
140
1.0
102
RTVSPost2010PropOp52
 70
     0
102
RTVSPost2010Prop53
 90
        2
102
RTVSPost2010PropOp53
 70
     1
102
RTVSPost2010Prop54
  1
strokes_ogs.tif
102
RTVSPost2010PropOp54
 70
     1
102
RTVSPost2010Prop55
280
     0
102
RTVSPost2010PropOp55
 70
     1
102
RTVSPost2010Prop56
140
1.0
102
RTVSPost2010PropOp56
 70
     1
102
RTVSPost2010Prop57
140
1.0
102
RTVSPost2010PropOp57
 70
     1
102
RTVSPropertyOp0
 70
     1
102
RTVSPropertyOp1
 70
     1
102
RTVSPropertyOp2
 70
     1
102
RTVSPropertyOp3
 70
     1
102
RTVSPropertyOp4
 70
     1
102
RTVSPropertyOp5
 70
     1
102
RTVSPropertyOp6
 70
     1
102
RTVSPropertyOp7
 70
     1
102
RTVSPropertyOp8
 70
     1
102
RTVSPropertyOp9
 70
     1
102
RTVSPropertyOp10
 70
     1
102
RTVSPropertyOp11
 70
     1
102
RTVSPropertyOp12
 70
     1
102
RTVSPropertyOp13
 70
     1
102
RTVSPropertyOp14
 70
     1
102
RTVSPropertyOp15
 70
     1
102
RTVSPropertyOp16
 70
     1
102
RTVSPropertyOp17
 70
     1
102
RTVSPropertyOp18
 70
     1
102
RTVSPropertyOp19
 70
     1
102
RTVSPropertyOp20
 70
     1
102
RTVSPropertyOp21
 70
     1
102
RTVSPropertyOp22
 70
     1
102
RTVSPropertyOp23
 70
     1
102
RTVSPropertyOp24
 70
     1
102
RTVSPropertyOp25
 70
     1
102
RTVSPropertyOp26
 70
     1
102
RTVSPropertyOp27
 70
     1
102
RTVSPropertyOp28
 70
     1
102
RTVSPropertyOp29
 70
     1
102
RTVSPropertyOp30
 70
     1
102
RTVSPropertyOp31
 70
     1
102
RTVSPropertyOp32
 70
     1
102
RTVSPropertyOp33
 70
     1
102
RTVSPropertyOp34
 70
     1
102
RTVSPropertyOp35
 70
     1
102
RTVSPropertyOp36
 70
     1
102
RTVSPropertyOp37
 70
     1
102
RTVSPropertyOp38
 70
     1
102
RTVSPropertyOp39
 70
     1
102
RTVSPropertyOp40
 70
     1
102
RTVSPropertyOp41
 70
     1
102
RTVSPropertyOp42
 70
     1
102
RTVSPropertyOp43
 70
     1
102
RTVSPropertyOp44
 70
     1
102
RTVSPropertyOp45
 70
     1
102
RTVSPropertyOp46
 70
     1
102
RTVSPropertyOp47
 70
     1
102
RTVSPropertyOp48
 70
     1
102
RTVSPropertyOp49
 70
     1
102
RTVSPropertyOp50
 70
     1
102
RTVSPropertyOp51
 70
     0
102
RTVSPropertyOp52
 70
     0
102
RTVSPropertyOp53
 70
     1
102
RTVSPropertyOp54
 70
     1
102
RTVSPropertyOp55
 70
     1
102
RTVSPropertyOp56
 70
     1
102
RTVSPropertyOp57
 70
     1
102
RTVSPropertyOp58
 70
     1
102
RTVSPropertyOp59
 70
     1
102
RTVSPropertyOp60
 70
     1
102
RTVSPropertyOp61
 70
     1
102
RTVSPropertyOp62
 70
     1
  0
XRECORD
  5
54C
102
{ACAD_REACTORS
330
54B
102
}
330
54B
100
AcDbXrecord
280
     1
102
RTVSPost2010Prop28
280
     0
102
RTVSPost2010PropOp28
 70
     1
102
RTVSPost2010Prop29
280
     1
102
RTVSPost2010PropOp29
 70
     1
102
RTVSPost2010Prop30
280
     1
102
RTVSPost2010PropOp30
 70
     1
102
RTVSPost2010Prop31
280
     0
102
RTVSPost2010PropOp31
 70
     1
102
RTVSPost2010Prop32
280
     0
102
RTVSPost2010PropOp32
 70
     1
102
RTVSPost2010Prop33
280
     0
102
RTVSPost2010PropOp33
 70
     1
102
RTVSPost2010Prop34
280
     0
102
RTVSPost2010PropOp34
 70
     1
102
RTVSPost2010Prop35
280
     0
102
RTVSPost2010PropOp35
 70
     1
102
RTVSPost2010Prop36
280
     0
102
RTVSPost2010PropOp36
 70
     1
102
RTVSPost2010Prop37
 90
       50
102
RTVSPost2010PropOp37
 70
     1
102
RTVSPost2010Prop38
140
0.0
102
RTVSPost2010PropOp38
 70
     1
102
RTVSPost2010Prop39
140
1.0
102
RTVSPost2010PropOp39
 70
     1
102
RTVSPost2010Prop40
 90
        0
102
RTVSPost2010PropOp40
 70
     1
102
RTVSPost2010Prop41ColorIndex
 90
       18
102
RTVSPost2010Prop41ColorRGB
 90
        0
102
RTVSPost2010PropOp41
 70
     1
102
RTVSPost2010Prop42
 90
       50
102
RTVSPost2010PropOp42
 70
     1
102
RTVSPost2010Prop43
 90
        3
102
RTVSPost2010PropOp43
 70
     1
102
RTVSPost2010Prop44ColorIndex
 90
        5
102
RTVSPost2010Prop44ColorRGB
 90
      255
102
RTVSPost2010PropOp44
 70
     1
102
RTVSPost2010Prop45
280
     0
102
RTVSPost2010PropOp45
 70
     1
102
RTVSPost2010Prop46
 90
       50
102
RTVSPost2010PropOp46
 70
     1
102
RTVSPost2010Prop47
 90
       50
102
RTVSPost2010PropOp47
 70
     1
102
RTVSPost2010Prop48
 90
       50
102
RTVSPost2010PropOp48
 70
     1
102
RTVSPost2010Prop49
280
     0
102
RTVSPost2010PropOp49
 70
     1
102
RTVSPost2010Prop50
 90
       50
102
RTVSPost2010PropOp50
 70
     1
102
RTVSPost2010Prop51ColorIndex
 90
      256
102
RTVSPost2010Prop51ColorRGB
 90
-16777216
102
RTVSPost2010PropOp51
 70
     0
102
RTVSPost2010Prop52
140
1.0
102
RTVSPost2010PropOp52
 70
     0
102
RTVSPost2010Prop53
 90
        2
102
RTVSPost2010PropOp53
 70
     1
102
RTVSPost2010Prop54
  1
strokes_ogs.tif
102
RTVSPost2010PropOp54
 70
     1
102
RTVSPost2010Prop55
280
     0
102
RTVSPost2010PropOp55
 70
     1
102
RTVSPost2010Prop56
140
1.0
102
RTVSPost2010PropOp56
 70
     1
102
RTVSPost2010Prop57
140
1.0
102
RTVSPost2010PropOp57
 70
     1
102
RTVSPropertyOp0
 70
     1
102
RTVSPropertyOp1
 70
     1
102
RTVSPropertyOp2
 70
     1
102
RTVSPropertyOp3
 70
     1
102
RTVSPropertyOp4
 70
     1
102
RTVSPropertyOp5
 70
     1
102
RTVSPropertyOp6
 70
     1
102
RTVSPropertyOp7
 70
     1
102
RTVSPropertyOp8
 70
     1
102
RTVSPropertyOp9
 70
     1
102
RTVSPropertyOp10
 70
     1
102
RTVSPropertyOp11
 70
     1
102
RTVSPropertyOp12
 70
     1
102
RTVSPropertyOp13
 70
     1
102
RTVSPropertyOp14
 70
     1
102
RTVSPropertyOp15
 70
     1
102
RTVSPropertyOp16
 70
     1
102
RTVSPropertyOp17
 70
     1
102
RTVSPropertyOp18
 70
     1
102
RTVSPropertyOp19
 70
     1
102
RTVSPropertyOp20
 70
     1
102
RTVSPropertyOp21
 70
     1
102
RTVSPropertyOp22
 70
     1
102
RTVSPropertyOp23
 70
     1
102
RTVSPropertyOp24
 70
     1
102
RTVSPropertyOp25
 70
     1
102
RTVSPropertyOp26
 70
     1
102
RTVSPropertyOp27
 70
     1
102
RTVSPropertyOp28
 70
     1
102
RTVSPropertyOp29
 70
     1
102
RTVSPropertyOp30
 70
     1
102
RTVSPropertyOp31
 70
     1
102
RTVSPropertyOp32
 70
     1
102
RTVSPropertyOp33
 70
     1
102
RTVSPropertyOp34
 70
     1
102
RTVSPropertyOp35
 70
     1
102
RTVSPropertyOp36
 70
     1
102
RTVSPropertyOp37
 70
     1
102
RTVSPropertyOp38
 70
     1
102
RTVSPropertyOp39
 70
     1
102
RTVSPropertyOp40
 70
     1
102
RTVSPropertyOp41
 70
     1
102
RTVSPropertyOp42
 70
     1
102
RTVSPropertyOp43
 70
     1
102
RTVSPropertyOp44
 70
     1
102
RTVSPropertyOp45
 70
     1
102
RTVSPropertyOp46
 70
     1
102
RTVSPropertyOp47
 70
     1
102
RTVSPropertyOp48
 70
     1
102
RTVSPropertyOp49
 70
     1
102
RTVSPropertyOp50
 70
     1
102
RTVSPropertyOp51
 70
     0
102
RTVSPropertyOp52
 70
     0
102
RTVSPropertyOp53
 70
     1
102
RTVSPropertyOp54
 70
     1
102
RTVSPropertyOp55
 70
     1
102
RTVSPropertyOp56
 70
     1
102
RTVSPropertyOp57
 70
     1
102
RTVSPropertyOp58
 70
     1
102
RTVSPropertyOp59
 70
     1
102
RTVSPropertyOp60
 70
     1
102
RTVSPropertyOp61
 70
     1
102
RTVSPropertyOp62
 70
     1
  0
XRECORD
  5
54A
102
{ACAD_REACTORS
330
549
102
}
330
549
100
AcDbXrecord
280
     1
102
RTVSPost2010Prop28
280
     0
102
RTVSPost2010PropOp28
 70
     1
102
RTVSPost2010Prop29
280
     1
102
RTVSPost2010PropOp29
 70
     1
102
RTVSPost2010Prop30
280
     1
102
RTVSPost2010PropOp30
 70
     1
102
RTVSPost2010Prop31
280
     0
102
RTVSPost2010PropOp31
 70
     1
102
RTVSPost2010Prop32
280
     0
102
RTVSPost2010PropOp32
 70
     1
102
RTVSPost2010Prop33
280
     0
102
RTVSPost2010PropOp33
 70
     1
102
RTVSPost2010Prop34
280
     0
102
RTVSPost2010PropOp34
 70
     1
102
RTVSPost2010Prop35
280
     0
102
RTVSPost2010PropOp35
 70
     1
102
RTVSPost2010Prop36
280
     0
102
RTVSPost2010PropOp36
 70
     1
102
RTVSPost2010Prop37
 90
       50
102
RTVSPost2010PropOp37
 70
     1
102
RTVSPost2010Prop38
140
0.0
102
RTVSPost2010PropOp38
 70
     1
102
RTVSPost2010Prop39
140
1.0
102
RTVSPost2010PropOp39
 70
     1
102
RTVSPost2010Prop40
 90
        0
102
RTVSPost2010PropOp40
 70
     1
102
RTVSPost2010Prop41ColorIndex
 90
       18
102
RTVSPost2010Prop41ColorRGB
 90
        0
102
RTVSPost2010PropOp41
 70
     1
102
RTVSPost2010Prop42
 90
       50
102
RTVSPost2010PropOp42
 70
     1
102
RTVSPost2010Prop43
 90
        3
102
RTVSPost2010PropOp43
 70
     1
102
RTVSPost2010Prop44ColorIndex
 90
        5
102
RTVSPost2010Prop44ColorRGB
 90
      255
102
RTVSPost2010PropOp44
 70
     1
102
RTVSPost2010Prop45
280
     0
102
RTVSPost2010PropOp45
 70
     1
102
RTVSPost2010Prop46
 90
       50
102
RTVSPost2010PropOp46
 70
     1
102
RTVSPost2010Prop47
 90
       50
102
RTVSPost2010PropOp47
 70
     1
102
RTVSPost2010Prop48
 90
       50
102
RTVSPost2010PropOp48
 70
     1
102
RTVSPost2010Prop49
280
     0
102
RTVSPost2010PropOp49
 70
     1
102
RTVSPost2010Prop50
 90
       50
102
RTVSPost2010PropOp50
 70
     1
102
RTVSPost2010Prop51ColorIndex
 90
      256
102
RTVSPost2010Prop51ColorRGB
 90
-16777216
102
RTVSPost2010PropOp51
 70
     0
102
RTVSPost2010Prop52
140
1.0
102
RTVSPost2010PropOp52
 70
     0
102
RTVSPost2010Prop53
 90
        2
102
RTVSPost2010PropOp53
 70
     1
102
RTVSPost2010Prop54
  1
strokes_ogs.tif
102
RTVSPost2010PropOp54
 70
     1
102
RTVSPost2010Prop55
280
     0
102
RTVSPost2010PropOp55
 70
     1
102
RTVSPost2010Prop56
140
1.0
102
RTVSPost2010PropOp56
 70
     1
102
RTVSPost2010Prop57
140
1.0
102
RTVSPost2010PropOp57
 70
     1
102
RTVSPropertyOp0
 70
     1
102
RTVSPropertyOp1
 70
     1
102
RTVSPropertyOp2
 70
     1
102
RTVSPropertyOp3
 70
     1
102
RTVSPropertyOp4
 70
     1
102
RTVSPropertyOp5
 70
     1
102
RTVSPropertyOp6
 70
     1
102
RTVSPropertyOp7
 70
     1
102
RTVSPropertyOp8
 70
     1
102
RTVSPropertyOp9
 70
     1
102
RTVSPropertyOp10
 70
     1
102
RTVSPropertyOp11
 70
     1
102
RTVSPropertyOp12
 70
     1
102
RTVSPropertyOp13
 70
     1
102
RTVSPropertyOp14
 70
     1
102
RTVSPropertyOp15
 70
     1
102
RTVSPropertyOp16
 70
     1
102
RTVSPropertyOp17
 70
     1
102
RTVSPropertyOp18
 70
     1
102
RTVSPropertyOp19
 70
     1
102
RTVSPropertyOp20
 70
     1
102
RTVSPropertyOp21
 70
     1
102
RTVSPropertyOp22
 70
     1
102
RTVSPropertyOp23
 70
     1
102
RTVSPropertyOp24
 70
     1
102
RTVSPropertyOp25
 70
     1
102
RTVSPropertyOp26
 70
     1
102
RTVSPropertyOp27
 70
     1
102
RTVSPropertyOp28
 70
     1
102
RTVSPropertyOp29
 70
     1
102
RTVSPropertyOp30
 70
     1
102
RTVSPropertyOp31
 70
     1
102
RTVSPropertyOp32
 70
     1
102
RTVSPropertyOp33
 70
     1
102
RTVSPropertyOp34
 70
     1
102
RTVSPropertyOp35
 70
     1
102
RTVSPropertyOp36
 70
     1
102
RTVSPropertyOp37
 70
     1
102
RTVSPropertyOp38
 70
     1
102
RTVSPropertyOp39
 70
     1
102
RTVSPropertyOp40
 70
     1
102
RTVSPropertyOp41
 70
     1
102
RTVSPropertyOp42
 70
     1
102
RTVSPropertyOp43
 70
     1
102
RTVSPropertyOp44
 70
     1
102
RTVSPropertyOp45
 70
     1
102
RTVSPropertyOp46
 70
     1
102
RTVSPropertyOp47
 70
     1
102
RTVSPropertyOp48
 70
     1
102
RTVSPropertyOp49
 70
     1
102
RTVSPropertyOp50
 70
     1
102
RTVSPropertyOp51
 70
     0
102
RTVSPropertyOp52
 70
     0
102
RTVSPropertyOp53
 70
     1
102
RTVSPropertyOp54
 70
     1
102
RTVSPropertyOp55
 70
     1
102
RTVSPropertyOp56
 70
     1
102
RTVSPropertyOp57
 70
     1
102
RTVSPropertyOp58
 70
     1
102
RTVSPropertyOp59
 70
     1
102
RTVSPropertyOp60
 70
     1
102
RTVSPropertyOp61
 70
     1
102
RTVSPropertyOp62
 70
     1
  0
XRECORD
  5
544
102
{ACAD_REACTORS
330
543
102
}
330
543
100
AcDbXrecord
280
     1
102
RTVSPost2010Prop28
280
     0
102
RTVSPost2010PropOp28
 70
     1
102
RTVSPost2010Prop29
280
     1
102
RTVSPost2010PropOp29
 70
     1
102
RTVSPost2010Prop30
280
     1
102
RTVSPost2010PropOp30
 70
     1
102
RTVSPost2010Prop31
280
     0
102
RTVSPost2010PropOp31
 70
     1
102
RTVSPost2010Prop32
280
     0
102
RTVSPost2010PropOp32
 70
     1
102
RTVSPost2010Prop33
280
     0
102
RTVSPost2010PropOp33
 70
     1
102
RTVSPost2010Prop34
280
     0
102
RTVSPost2010PropOp34
 70
     1
102
RTVSPost2010Prop35
280
     0
102
RTVSPost2010PropOp35
 70
     1
102
RTVSPost2010Prop36
280
     0
102
RTVSPost2010PropOp36
 70
     1
102
RTVSPost2010Prop37
 90
       50
102
RTVSPost2010PropOp37
 70
     1
102
RTVSPost2010Prop38
140
0.0
102
RTVSPost2010PropOp38
 70
     1
102
RTVSPost2010Prop39
140
1.0
102
RTVSPost2010PropOp39
 70
     1
102
RTVSPost2010Prop40
 90
        0
102
RTVSPost2010PropOp40
 70
     1
102
RTVSPost2010Prop41ColorIndex
 90
       18
102
RTVSPost2010Prop41ColorRGB
 90
        0
102
RTVSPost2010PropOp41
 70
     1
102
RTVSPost2010Prop42
 90
       50
102
RTVSPost2010PropOp42
 70
     1
102
RTVSPost2010Prop43
 90
        3
102
RTVSPost2010PropOp43
 70
     1
102
RTVSPost2010Prop44ColorIndex
 90
        5
102
RTVSPost2010Prop44ColorRGB
 90
      255
102
RTVSPost2010PropOp44
 70
     1
102
RTVSPost2010Prop45
280
     0
102
RTVSPost2010PropOp45
 70
     1
102
RTVSPost2010Prop46
 90
       50
102
RTVSPost2010PropOp46
 70
     1
102
RTVSPost2010Prop47
 90
       50
102
RTVSPost2010PropOp47
 70
     1
102
RTVSPost2010Prop48
 90
       50
102
RTVSPost2010PropOp48
 70
     1
102
RTVSPost2010Prop49
280
     0
102
RTVSPost2010PropOp49
 70
     1
102
RTVSPost2010Prop50
 90
       50
102
RTVSPost2010PropOp50
 70
     1
102
RTVSPost2010Prop51ColorIndex
 90
      256
102
RTVSPost2010Prop51ColorRGB
 90
-16777216
102
RTVSPost2010PropOp51
 70
     0
102
RTVSPost2010Prop52
140
1.0
102
RTVSPost2010PropOp52
 70
     0
102
RTVSPost2010Prop53
 90
        2
102
RTVSPost2010PropOp53
 70
     1
102
RTVSPost2010Prop54
  1
strokes_ogs.tif
102
RTVSPost2010PropOp54
 70
     1
102
RTVSPost2010Prop55
280
     0
102
RTVSPost2010PropOp55
 70
     1
102
RTVSPost2010Prop56
140
1.0
102
RTVSPost2010PropOp56
 70
     1
102
RTVSPost2010Prop57
140
1.0
102
RTVSPost2010PropOp57
 70
     1
102
RTVSPropertyOp0
 70
     1
102
RTVSPropertyOp1
 70
     1
102
RTVSPropertyOp2
 70
     1
102
RTVSPropertyOp3
 70
     1
102
RTVSPropertyOp4
 70
     1
102
RTVSPropertyOp5
 70
     1
102
RTVSPropertyOp6
 70
     1
102
RTVSPropertyOp7
 70
     1
102
RTVSPropertyOp8
 70
     1
102
RTVSPropertyOp9
 70
     1
102
RTVSPropertyOp10
 70
     1
102
RTVSPropertyOp11
 70
     1
102
RTVSPropertyOp12
 70
     1
102
RTVSPropertyOp13
 70
     1
102
RTVSPropertyOp14
 70
     1
102
RTVSPropertyOp15
 70
     1
102
RTVSPropertyOp16
 70
     1
102
RTVSPropertyOp17
 70
     1
102
RTVSPropertyOp18
 70
     1
102
RTVSPropertyOp19
 70
     1
102
RTVSPropertyOp20
 70
     1
102
RTVSPropertyOp21
 70
     1
102
RTVSPropertyOp22
 70
     1
102
RTVSPropertyOp23
 70
     1
102
RTVSPropertyOp24
 70
     1
102
RTVSPropertyOp25
 70
     1
102
RTVSPropertyOp26
 70
     1
102
RTVSPropertyOp27
 70
     1
102
RTVSPropertyOp28
 70
     1
102
RTVSPropertyOp29
 70
     1
102
RTVSPropertyOp30
 70
     1
102
RTVSPropertyOp31
 70
     1
102
RTVSPropertyOp32
 70
     1
102
RTVSPropertyOp33
 70
     1
102
RTVSPropertyOp34
 70
     1
102
RTVSPropertyOp35
 70
     1
102
RTVSPropertyOp36
 70
     1
102
RTVSPropertyOp37
 70
     1
102
RTVSPropertyOp38
 70
     1
102
RTVSPropertyOp39
 70
     1
102
RTVSPropertyOp40
 70
     1
102
RTVSPropertyOp41
 70
     1
102
RTVSPropertyOp42
 70
     1
102
RTVSPropertyOp43
 70
     1
102
RTVSPropertyOp44
 70
     1
102
RTVSPropertyOp45
 70
     1
102
RTVSPropertyOp46
 70
     1
102
RTVSPropertyOp47
 70
     1
102
RTVSPropertyOp48
 70
     1
102
RTVSPropertyOp49
 70
     1
102
RTVSPropertyOp50
 70
     1
102
RTVSPropertyOp51
 70
     0
102
RTVSPropertyOp52
 70
     0
102
RTVSPropertyOp53
 70
     1
102
RTVSPropertyOp54
 70
     1
102
RTVSPropertyOp55
 70
     1
102
RTVSPropertyOp56
 70
     1
102
RTVSPropertyOp57
 70
     1
102
RTVSPropertyOp58
 70
     1
102
RTVSPropertyOp59
 70
     1
102
RTVSPropertyOp60
 70
     1
102
RTVSPropertyOp61
 70
     1
102
RTVSPropertyOp62
 70
     1
  0
XRECORD
  5
546
102
{ACAD_REACTORS
330
545
102
}
330
545
100
AcDbXrecord
280
     1
102
RTVSPost2010Prop28
280
     0
102
RTVSPost2010PropOp28
 70
     1
102
RTVSPost2010Prop29
280
     1
102
RTVSPost2010PropOp29
 70
     1
102
RTVSPost2010Prop30
280
     1
102
RTVSPost2010PropOp30
 70
     1
102
RTVSPost2010Prop31
280
     0
102
RTVSPost2010PropOp31
 70
     1
102
RTVSPost2010Prop32
280
     0
102
RTVSPost2010PropOp32
 70
     1
102
RTVSPost2010Prop33
280
     0
102
RTVSPost2010PropOp33
 70
     1
102
RTVSPost2010Prop34
280
     0
102
RTVSPost2010PropOp34
 70
     1
102
RTVSPost2010Prop35
280
     0
102
RTVSPost2010PropOp35
 70
     1
102
RTVSPost2010Prop36
280
     0
102
RTVSPost2010PropOp36
 70
     1
102
RTVSPost2010Prop37
 90
       50
102
RTVSPost2010PropOp37
 70
     1
102
RTVSPost2010Prop38
140
0.0
102
RTVSPost2010PropOp38
 70
     1
102
RTVSPost2010Prop39
140
1.0
102
RTVSPost2010PropOp39
 70
     1
102
RTVSPost2010Prop40
 90
        0
102
RTVSPost2010PropOp40
 70
     1
102
RTVSPost2010Prop41ColorIndex
 90
       18
102
RTVSPost2010Prop41ColorRGB
 90
        0
102
RTVSPost2010PropOp41
 70
     1
102
RTVSPost2010Prop42
 90
       50
102
RTVSPost2010PropOp42
 70
     1
102
RTVSPost2010Prop43
 90
        3
102
RTVSPost2010PropOp43
 70
     1
102
RTVSPost2010Prop44ColorIndex
 90
        5
102
RTVSPost2010Prop44ColorRGB
 90
      255
102
RTVSPost2010PropOp44
 70
     1
102
RTVSPost2010Prop45
280
     0
102
RTVSPost2010PropOp45
 70
     1
102
RTVSPost2010Prop46
 90
       50
102
RTVSPost2010PropOp46
 70
     1
102
RTVSPost2010Prop47
 90
       50
102
RTVSPost2010PropOp47
 70
     1
102
RTVSPost2010Prop48
 90
       50
102
RTVSPost2010PropOp48
 70
     1
102
RTVSPost2010Prop49
280
     0
102
RTVSPost2010PropOp49
 70
     1
102
RTVSPost2010Prop50
 90
       50
102
RTVSPost2010PropOp50
 70
     1
102
RTVSPost2010Prop51ColorIndex
 90
      256
102
RTVSPost2010Prop51ColorRGB
 90
-16777216
102
RTVSPost2010PropOp51
 70
     0
102
RTVSPost2010Prop52
140
1.0
102
RTVSPost2010PropOp52
 70
     0
102
RTVSPost2010Prop53
 90
        2
102
RTVSPost2010PropOp53
 70
     1
102
RTVSPost2010Prop54
  1
strokes_ogs.tif
102
RTVSPost2010PropOp54
 70
     1
102
RTVSPost2010Prop55
280
     0
102
RTVSPost2010PropOp55
 70
     1
102
RTVSPost2010Prop56
140
1.0
102
RTVSPost2010PropOp56
 70
     1
102
RTVSPost2010Prop57
140
1.0
102
RTVSPost2010PropOp57
 70
     1
102
RTVSPropertyOp0
 70
     1
102
RTVSPropertyOp1
 70
     1
102
RTVSPropertyOp2
 70
     1
102
RTVSPropertyOp3
 70
     1
102
RTVSPropertyOp4
 70
     1
102
RTVSPropertyOp5
 70
     1
102
RTVSPropertyOp6
 70
     1
102
RTVSPropertyOp7
 70
     1
102
RTVSPropertyOp8
 70
     1
102
RTVSPropertyOp9
 70
     1
102
RTVSPropertyOp10
 70
     1
102
RTVSPropertyOp11
 70
     1
102
RTVSPropertyOp12
 70
     1
102
RTVSPropertyOp13
 70
     1
102
RTVSPropertyOp14
 70
     1
102
RTVSPropertyOp15
 70
     1
102
RTVSPropertyOp16
 70
     1
102
RTVSPropertyOp17
 70
     1
102
RTVSPropertyOp18
 70
     1
102
RTVSPropertyOp19
 70
     1
102
RTVSPropertyOp20
 70
     1
102
RTVSPropertyOp21
 70
     1
102
RTVSPropertyOp22
 70
     1
102
RTVSPropertyOp23
 70
     1
102
RTVSPropertyOp24
 70
     1
102
RTVSPropertyOp25
 70
     1
102
RTVSPropertyOp26
 70
     1
102
RTVSPropertyOp27
 70
     1
102
RTVSPropertyOp28
 70
     1
102
RTVSPropertyOp29
 70
     1
102
RTVSPropertyOp30
 70
     1
102
RTVSPropertyOp31
 70
     1
102
RTVSPropertyOp32
 70
     1
102
RTVSPropertyOp33
 70
     1
102
RTVSPropertyOp34
 70
     1
102
RTVSPropertyOp35
 70
     1
102
RTVSPropertyOp36
 70
     1
102
RTVSPropertyOp37
 70
     1
102
RTVSPropertyOp38
 70
     1
102
RTVSPropertyOp39
 70
     1
102
RTVSPropertyOp40
 70
     1
102
RTVSPropertyOp41
 70
     1
102
RTVSPropertyOp42
 70
     1
102
RTVSPropertyOp43
 70
     1
102
RTVSPropertyOp44
 70
     1
102
RTVSPropertyOp45
 70
     1
102
RTVSPropertyOp46
 70
     1
102
RTVSPropertyOp47
 70
     1
102
RTVSPropertyOp48
 70
     1
102
RTVSPropertyOp49
 70
     1
102
RTVSPropertyOp50
 70
     1
102
RTVSPropertyOp51
 70
     0
102
RTVSPropertyOp52
 70
     0
102
RTVSPropertyOp53
 70
     1
102
RTVSPropertyOp54
 70
     1
102
RTVSPropertyOp55
 70
     1
102
RTVSPropertyOp56
 70
     1
102
RTVSPropertyOp57
 70
     1
102
RTVSPropertyOp58
 70
     1
102
RTVSPropertyOp59
 70
     1
102
RTVSPropertyOp60
 70
     1
102
RTVSPropertyOp61
 70
     1
102
RTVSPropertyOp62
 70
     1
  0
XRECORD
  5
53C
102
{ACAD_REACTORS
330
53B
102
}
330
53B
100
AcDbXrecord
280
     1
102
RTVSPost2010Prop28
280
     0
102
RTVSPost2010PropOp28
 70
     1
102
RTVSPost2010Prop29
280
     1
102
RTVSPost2010PropOp29
 70
     1
102
RTVSPost2010Prop30
280
     1
102
RTVSPost2010PropOp30
 70
     1
102
RTVSPost2010Prop31
280
     0
102
RTVSPost2010PropOp31
 70
     1
102
RTVSPost2010Prop32
280
     0
102
RTVSPost2010PropOp32
 70
     1
102
RTVSPost2010Prop33
280
     0
102
RTVSPost2010PropOp33
 70
     1
102
RTVSPost2010Prop34
280
     0
102
RTVSPost2010PropOp34
 70
     1
102
RTVSPost2010Prop35
280
     0
102
RTVSPost2010PropOp35
 70
     1
102
RTVSPost2010Prop36
280
     0
102
RTVSPost2010PropOp36
 70
     1
102
RTVSPost2010Prop37
 90
       50
102
RTVSPost2010PropOp37
 70
     1
102
RTVSPost2010Prop38
140
0.0
102
RTVSPost2010PropOp38
 70
     1
102
RTVSPost2010Prop39
140
1.0
102
RTVSPost2010PropOp39
 70
     1
102
RTVSPost2010Prop40
 90
        0
102
RTVSPost2010PropOp40
 70
     1
102
RTVSPost2010Prop41ColorIndex
 90
       18
102
RTVSPost2010Prop41ColorRGB
 90
        0
102
RTVSPost2010PropOp41
 70
     1
102
RTVSPost2010Prop42
 90
       50
102
RTVSPost2010PropOp42
 70
     1
102
RTVSPost2010Prop43
 90
        3
102
RTVSPost2010PropOp43
 70
     1
102
RTVSPost2010Prop44ColorIndex
 90
        5
102
RTVSPost2010Prop44ColorRGB
 90
      255
102
RTVSPost2010PropOp44
 70
     1
102
RTVSPost2010Prop45
280
     0
102
RTVSPost2010PropOp45
 70
     1
102
RTVSPost2010Prop46
 90
       50
102
RTVSPost2010PropOp46
 70
     1
102
RTVSPost2010Prop47
 90
       50
102
RTVSPost2010PropOp47
 70
     1
102
RTVSPost2010Prop48
 90
       50
102
RTVSPost2010PropOp48
 70
     1
102
RTVSPost2010Prop49
280
     0
102
RTVSPost2010PropOp49
 70
     1
102
RTVSPost2010Prop50
 90
       50
102
RTVSPost2010PropOp50
 70
     1
102
RTVSPost2010Prop51ColorIndex
 90
      256
102
RTVSPost2010Prop51ColorRGB
 90
-16777216
102
RTVSPost2010PropOp51
 70
     0
102
RTVSPost2010Prop52
140
1.0
102
RTVSPost2010PropOp52
 70
     0
102
RTVSPost2010Prop53
 90
        2
102
RTVSPost2010PropOp53
 70
     1
102
RTVSPost2010Prop54
  1
strokes_ogs.tif
102
RTVSPost2010PropOp54
 70
     1
102
RTVSPost2010Prop55
280
     0
102
RTVSPost2010PropOp55
 70
     1
102
RTVSPost2010Prop56
140
1.0
102
RTVSPost2010PropOp56
 70
     1
102
RTVSPost2010Prop57
140
1.0
102
RTVSPost2010PropOp57
 70
     1
102
RTVSPropertyOp0
 70
     1
102
RTVSPropertyOp1
 70
     1
102
RTVSPropertyOp2
 70
     1
102
RTVSPropertyOp3
 70
     1
102
RTVSPropertyOp4
 70
     1
102
RTVSPropertyOp5
 70
     1
102
RTVSPropertyOp6
 70
     1
102
RTVSPropertyOp7
 70
     1
102
RTVSPropertyOp8
 70
     1
102
RTVSPropertyOp9
 70
     1
102
RTVSPropertyOp10
 70
     1
102
RTVSPropertyOp11
 70
     1
102
RTVSPropertyOp12
 70
     1
102
RTVSPropertyOp13
 70
     1
102
RTVSPropertyOp14
 70
     1
102
RTVSPropertyOp15
 70
     1
102
RTVSPropertyOp16
 70
     1
102
RTVSPropertyOp17
 70
     1
102
RTVSPropertyOp18
 70
     1
102
RTVSPropertyOp19
 70
     1
102
RTVSPropertyOp20
 70
     1
102
RTVSPropertyOp21
 70
     1
102
RTVSPropertyOp22
 70
     1
102
RTVSPropertyOp23
 70
     1
102
RTVSPropertyOp24
 70
     1
102
RTVSPropertyOp25
 70
     1
102
RTVSPropertyOp26
 70
     1
102
RTVSPropertyOp27
 70
     1
102
RTVSPropertyOp28
 70
     1
102
RTVSPropertyOp29
 70
     1
102
RTVSPropertyOp30
 70
     1
102
RTVSPropertyOp31
 70
     1
102
RTVSPropertyOp32
 70
     1
102
RTVSPropertyOp33
 70
     1
102
RTVSPropertyOp34
 70
     1
102
RTVSPropertyOp35
 70
     1
102
RTVSPropertyOp36
 70
     1
102
RTVSPropertyOp37
 70
     1
102
RTVSPropertyOp38
 70
     1
102
RTVSPropertyOp39
 70
     1
102
RTVSPropertyOp40
 70
     1
102
RTVSPropertyOp41
 70
     1
102
RTVSPropertyOp42
 70
     1
102
RTVSPropertyOp43
 70
     1
102
RTVSPropertyOp44
 70
     1
102
RTVSPropertyOp45
 70
     1
102
RTVSPropertyOp46
 70
     1
102
RTVSPropertyOp47
 70
     1
102
RTVSPropertyOp48
 70
     1
102
RTVSPropertyOp49
 70
     1
102
RTVSPropertyOp50
 70
     1
102
RTVSPropertyOp51
 70
     0
102
RTVSPropertyOp52
 70
     0
102
RTVSPropertyOp53
 70
     1
102
RTVSPropertyOp54
 70
     1
102
RTVSPropertyOp55
 70
     1
102
RTVSPropertyOp56
 70
     1
102
RTVSPropertyOp57
 70
     1
102
RTVSPropertyOp58
 70
     1
102
RTVSPropertyOp59
 70
     1
102
RTVSPropertyOp60
 70
     1
102
RTVSPropertyOp61
 70
     1
102
RTVSPropertyOp62
 70
     1
  0
XRECORD
  5
530
102
{ACAD_REACTORS
330
52F
102
}
330
52F
100
AcDbXrecord
280
     1
102
RTVSPost2010Prop28
280
     0
102
RTVSPost2010PropOp28
 70
     1
102
RTVSPost2010Prop29
280
     1
102
RTVSPost2010PropOp29
 70
     1
102
RTVSPost2010Prop30
280
     1
102
RTVSPost2010PropOp30
 70
     1
102
RTVSPost2010Prop31
280
     0
102
RTVSPost2010PropOp31
 70
     1
102
RTVSPost2010Prop32
280
     0
102
RTVSPost2010PropOp32
 70
     1
102
RTVSPost2010Prop33
280
     0
102
RTVSPost2010PropOp33
 70
     1
102
RTVSPost2010Prop34
280
     0
102
RTVSPost2010PropOp34
 70
     1
102
RTVSPost2010Prop35
280
     0
102
RTVSPost2010PropOp35
 70
     1
102
RTVSPost2010Prop36
280
     0
102
RTVSPost2010PropOp36
 70
     1
102
RTVSPost2010Prop37
 90
       50
102
RTVSPost2010PropOp37
 70
     1
102
RTVSPost2010Prop38
140
0.0
102
RTVSPost2010PropOp38
 70
     1
102
RTVSPost2010Prop39
140
1.0
102
RTVSPost2010PropOp39
 70
     1
102
RTVSPost2010Prop40
 90
        0
102
RTVSPost2010PropOp40
 70
     1
102
RTVSPost2010Prop41ColorIndex
 90
       18
102
RTVSPost2010Prop41ColorRGB
 90
        0
102
RTVSPost2010PropOp41
 70
     1
102
RTVSPost2010Prop42
 90
       50
102
RTVSPost2010PropOp42
 70
     1
102
RTVSPost2010Prop43
 90
        3
102
RTVSPost2010PropOp43
 70
     1
102
RTVSPost2010Prop44ColorIndex
 90
        5
102
RTVSPost2010Prop44ColorRGB
 90
      255
102
RTVSPost2010PropOp44
 70
     1
102
RTVSPost2010Prop45
280
     0
102
RTVSPost2010PropOp45
 70
     1
102
RTVSPost2010Prop46
 90
       50
102
RTVSPost2010PropOp46
 70
     1
102
RTVSPost2010Prop47
 90
       50
102
RTVSPost2010PropOp47
 70
     1
102
RTVSPost2010Prop48
 90
       50
102
RTVSPost2010PropOp48
 70
     1
102
RTVSPost2010Prop49
280
     0
102
RTVSPost2010PropOp49
 70
     1
102
RTVSPost2010Prop50
 90
       50
102
RTVSPost2010PropOp50
 70
     1
102
RTVSPost2010Prop51ColorIndex
 90
      256
102
RTVSPost2010Prop51ColorRGB
 90
-16777216
102
RTVSPost2010PropOp51
 70
     0
102
RTVSPost2010Prop52
140
1.0
102
RTVSPost2010PropOp52
 70
     0
102
RTVSPost2010Prop53
 90
        2
102
RTVSPost2010PropOp53
 70
     1
102
RTVSPost2010Prop54
  1
strokes_ogs.tif
102
RTVSPost2010PropOp54
 70
     1
102
RTVSPost2010Prop55
280
     0
102
RTVSPost2010PropOp55
 70
     1
102
RTVSPost2010Prop56
140
1.0
102
RTVSPost2010PropOp56
 70
     1
102
RTVSPost2010Prop57
140
1.0
102
RTVSPost2010PropOp57
 70
     1
102
RTVSPropertyOp0
 70
     1
102
RTVSPropertyOp1
 70
     1
102
RTVSPropertyOp2
 70
     1
102
RTVSPropertyOp3
 70
     1
102
RTVSPropertyOp4
 70
     1
102
RTVSPropertyOp5
 70
     1
102
RTVSPropertyOp6
 70
     1
102
RTVSPropertyOp7
 70
     1
102
RTVSPropertyOp8
 70
     1
102
RTVSPropertyOp9
 70
     1
102
RTVSPropertyOp10
 70
     1
102
RTVSPropertyOp11
 70
     1
102
RTVSPropertyOp12
 70
     1
102
RTVSPropertyOp13
 70
     1
102
RTVSPropertyOp14
 70
     1
102
RTVSPropertyOp15
 70
     1
102
RTVSPropertyOp16
 70
     1
102
RTVSPropertyOp17
 70
     1
102
RTVSPropertyOp18
 70
     1
102
RTVSPropertyOp19
 70
     1
102
RTVSPropertyOp20
 70
     1
102
RTVSPropertyOp21
 70
     1
102
RTVSPropertyOp22
 70
     1
102
RTVSPropertyOp23
 70
     1
102
RTVSPropertyOp24
 70
     1
102
RTVSPropertyOp25
 70
     1
102
RTVSPropertyOp26
 70
     1
102
RTVSPropertyOp27
 70
     1
102
RTVSPropertyOp28
 70
     1
102
RTVSPropertyOp29
 70
     1
102
RTVSPropertyOp30
 70
     1
102
RTVSPropertyOp31
 70
     1
102
RTVSPropertyOp32
 70
     1
102
RTVSPropertyOp33
 70
     1
102
RTVSPropertyOp34
 70
     1
102
RTVSPropertyOp35
 70
     1
102
RTVSPropertyOp36
 70
     1
102
RTVSPropertyOp37
 70
     1
102
RTVSPropertyOp38
 70
     1
102
RTVSPropertyOp39
 70
     1
102
RTVSPropertyOp40
 70
     1
102
RTVSPropertyOp41
 70
     1
102
RTVSPropertyOp42
 70
     1
102
RTVSPropertyOp43
 70
     1
102
RTVSPropertyOp44
 70
     1
102
RTVSPropertyOp45
 70
     1
102
RTVSPropertyOp46
 70
     1
102
RTVSPropertyOp47
 70
     1
102
RTVSPropertyOp48
 70
     1
102
RTVSPropertyOp49
 70
     1
102
RTVSPropertyOp50
 70
     1
102
RTVSPropertyOp51
 70
     0
102
RTVSPropertyOp52
 70
     0
102
RTVSPropertyOp53
 70
     1
102
RTVSPropertyOp54
 70
     1
102
RTVSPropertyOp55
 70
     1
102
RTVSPropertyOp56
 70
     1
102
RTVSPropertyOp57
 70
     1
102
RTVSPropertyOp58
 70
     1
102
RTVSPropertyOp59
 70
     1
102
RTVSPropertyOp60
 70
     1
102
RTVSPropertyOp61
 70
     1
102
RTVSPropertyOp62
 70
     1
  0
XRECORD
  5
548
102
{ACAD_REACTORS
330
547
102
}
330
547
100
AcDbXrecord
280
     1
102
RTVSPost2010Prop28
280
     0
102
RTVSPost2010PropOp28
 70
     1
102
RTVSPost2010Prop29
280
     1
102
RTVSPost2010PropOp29
 70
     1
102
RTVSPost2010Prop30
280
     1
102
RTVSPost2010PropOp30
 70
     1
102
RTVSPost2010Prop31
280
     0
102
RTVSPost2010PropOp31
 70
     1
102
RTVSPost2010Prop32
280
     0
102
RTVSPost2010PropOp32
 70
     1
102
RTVSPost2010Prop33
280
     0
102
RTVSPost2010PropOp33
 70
     1
102
RTVSPost2010Prop34
280
     0
102
RTVSPost2010PropOp34
 70
     1
102
RTVSPost2010Prop35
280
     0
102
RTVSPost2010PropOp35
 70
     1
102
RTVSPost2010Prop36
280
     0
102
RTVSPost2010PropOp36
 70
     1
102
RTVSPost2010Prop37
 90
       50
102
RTVSPost2010PropOp37
 70
     1
102
RTVSPost2010Prop38
140
0.0
102
RTVSPost2010PropOp38
 70
     1
102
RTVSPost2010Prop39
140
1.0
102
RTVSPost2010PropOp39
 70
     1
102
RTVSPost2010Prop40
 90
        0
102
RTVSPost2010PropOp40
 70
     1
102
RTVSPost2010Prop41ColorIndex
 90
       18
102
RTVSPost2010Prop41ColorRGB
 90
        0
102
RTVSPost2010PropOp41
 70
     1
102
RTVSPost2010Prop42
 90
       50
102
RTVSPost2010PropOp42
 70
     1
102
RTVSPost2010Prop43
 90
        3
102
RTVSPost2010PropOp43
 70
     1
102
RTVSPost2010Prop44ColorIndex
 90
        5
102
RTVSPost2010Prop44ColorRGB
 90
      255
102
RTVSPost2010PropOp44
 70
     1
102
RTVSPost2010Prop45
280
     0
102
RTVSPost2010PropOp45
 70
     1
102
RTVSPost2010Prop46
 90
       50
102
RTVSPost2010PropOp46
 70
     1
102
RTVSPost2010Prop47
 90
       50
102
RTVSPost2010PropOp47
 70
     1
102
RTVSPost2010Prop48
 90
       50
102
RTVSPost2010PropOp48
 70
     1
102
RTVSPost2010Prop49
280
     0
102
RTVSPost2010PropOp49
 70
     1
102
RTVSPost2010Prop50
 90
       50
102
RTVSPost2010PropOp50
 70
     1
102
RTVSPost2010Prop51ColorIndex
 90
      256
102
RTVSPost2010Prop51ColorRGB
 90
-16777216
102
RTVSPost2010PropOp51
 70
     0
102
RTVSPost2010Prop52
140
1.0
102
RTVSPost2010PropOp52
 70
     0
102
RTVSPost2010Prop53
 90
        2
102
RTVSPost2010PropOp53
 70
     1
102
RTVSPost2010Prop54
  1
strokes_ogs.tif
102
RTVSPost2010PropOp54
 70
     1
102
RTVSPost2010Prop55
280
     0
102
RTVSPost2010PropOp55
 70
     1
102
RTVSPost2010Prop56
140
1.0
102
RTVSPost2010PropOp56
 70
     1
102
RTVSPost2010Prop57
140
1.0
102
RTVSPost2010PropOp57
 70
     1
102
RTVSPropertyOp0
 70
     1
102
RTVSPropertyOp1
 70
     1
102
RTVSPropertyOp2
 70
     1
102
RTVSPropertyOp3
 70
     1
102
RTVSPropertyOp4
 70
     1
102
RTVSPropertyOp5
 70
     1
102
RTVSPropertyOp6
 70
     1
102
RTVSPropertyOp7
 70
     1
102
RTVSPropertyOp8
 70
     1
102
RTVSPropertyOp9
 70
     1
102
RTVSPropertyOp10
 70
     1
102
RTVSPropertyOp11
 70
     1
102
RTVSPropertyOp12
 70
     1
102
RTVSPropertyOp13
 70
     1
102
RTVSPropertyOp14
 70
     1
102
RTVSPropertyOp15
 70
     1
102
RTVSPropertyOp16
 70
     1
102
RTVSPropertyOp17
 70
     1
102
RTVSPropertyOp18
 70
     1
102
RTVSPropertyOp19
 70
     1
102
RTVSPropertyOp20
 70
     1
102
RTVSPropertyOp21
 70
     1
102
RTVSPropertyOp22
 70
     1
102
RTVSPropertyOp23
 70
     1
102
RTVSPropertyOp24
 70
     1
102
RTVSPropertyOp25
 70
     1
102
RTVSPropertyOp26
 70
     1
102
RTVSPropertyOp27
 70
     1
102
RTVSPropertyOp28
 70
     1
102
RTVSPropertyOp29
 70
     1
102
RTVSPropertyOp30
 70
     1
102
RTVSPropertyOp31
 70
     1
102
RTVSPropertyOp32
 70
     1
102
RTVSPropertyOp33
 70
     1
102
RTVSPropertyOp34
 70
     1
102
RTVSPropertyOp35
 70
     1
102
RTVSPropertyOp36
 70
     1
102
RTVSPropertyOp37
 70
     1
102
RTVSPropertyOp38
 70
     1
102
RTVSPropertyOp39
 70
     1
102
RTVSPropertyOp40
 70
     1
102
RTVSPropertyOp41
 70
     1
102
RTVSPropertyOp42
 70
     1
102
RTVSPropertyOp43
 70
     1
102
RTVSPropertyOp44
 70
     1
102
RTVSPropertyOp45
 70
     1
102
RTVSPropertyOp46
 70
     1
102
RTVSPropertyOp47
 70
     1
102
RTVSPropertyOp48
 70
     1
102
RTVSPropertyOp49
 70
     1
102
RTVSPropertyOp50
 70
     1
102
RTVSPropertyOp51
 70
     0
102
RTVSPropertyOp52
 70
     0
102
RTVSPropertyOp53
 70
     1
102
RTVSPropertyOp54
 70
     1
102
RTVSPropertyOp55
 70
     1
102
RTVSPropertyOp56
 70
     1
102
RTVSPropertyOp57
 70
     1
102
RTVSPropertyOp58
 70
     1
102
RTVSPropertyOp59
 70
     1
102
RTVSPropertyOp60
 70
     1
102
RTVSPropertyOp61
 70
     1
102
RTVSPropertyOp62
 70
     1
  0
ENDSEC
  0
EOF
